Jonny Lang

Jonny Lang - Missing Your Love guitar tab

Date: Fri, 19 Jun 1998 21:37:15 -0500

From: "D. Klepper"

Subject: l/lang_jonny/missing_your_love.tab

Missing Your Love

from the album "Lie to Me" by: Jonny Lang

tabbed by: Brian Klepper

email: dklepper@cei.net

Tuning: Eb Bb Gb Db Ab Eb (high to low)

It took me about a day to figure this solo out. I just listened to it and got

hooked. I had to figure it out. Blah, blah, blah.

But anyway, when I tabbed this out I didn't pay attention to timing so you'll

have to figure it out on your own. Sorry.

The secret to this solo is to listen to the cd and then try to put the same

feeling into your playing. Hope it works for you.

SOLO:

v

|-9s10-(10)-11p10-11p10-10s11-----|-10-------------------------------|

|---------------------------------|----11----------------------------|

|---------------------------------|-------10-------------------------|

|---------------------------------|----------------------------------|

|---------------------------------|----------------------------------|

|---------------------------------|----------------------------------|

v v v

|---------------------------------|----------------------------------|

|---------------------------------|----------------------------------|

|-7h8-8p7-8s10-6b(7)---------6s8--|---------------10----10h12-10-12--|

|--------------------8p6-6-5------|-(8)-8-8-10s12----12--------------|

|---------------------------------|----------------------------------|

|---------------------------------|----------------------------------|

v V

|---------------------------------|-13b(16)--------------------------|

|-13b(14)-14r13-11-13-------------|---------13b(15)---10s11-----11---|

|----------------------12---------|--------------------------12------|

|---------------------------------|----------------------------------|

|---------------------------------|----------------------------------|

|---------------------------------|----------------------------------|

V V V

|-10h11-10------------------------|----------------------------------|

|-11----11------------------------|-------13-------------------------|

|----------10 8s7-7h8p7-----------|----------------------------------|

|-----------------------8---------| 10s12----------------------------|

|-------------------------8-------|----------------------------------|

|---------------------------------|----------------------------------|

Get this song at:  amazon.com sheetmusicplus.com

Share your thoughts

0 Comments found