Jonny Lang

Jonny Lang - Lie To Me guitar tab

Lie to Me-Jonny Lang

Guitar tuned down 1/2 step (Eb, Ab, Db, Gb, Bb, Eb)

Chord table:

6 5 4 3 2 1

| | | | | |

G5 3 x 0 0 x x

A5 x 0 2 2 x x

B5 x 2 4 4 x x

E7 0 2 0 1 x x

G5(3) 3 5 5 x x x

F#5 2 4 4 x x x

B5(7) 7 9 9 x x x

Intro (Slight Distortion, Guitar 1):

B5 E7

(Rythm Fig. 1)

Eb ---------------------|-------------------------|------------------------

Bb ---------------------|------------------------0|(0)---0--------0-----0--

Gb ------4-----2--4----4|(4)---4-----2--4------0h1|(1)------1--2--1-----1--

Db ---------4-----4----4|(4)---4-----2--4---------|-2-------------0--------

Ab -2-------------2-----|-2-------2-----2--2------|-2-------2--2-----------

Eb ---------------------|-------------------------|-0----------0-----0-----

Band in

w/ Gtr 1 on ryt. fig. 1

B5

**End Ryth. Fig 1. Gtr 2

Eb ---------------------|-------------------------|------------------------

Bb (0)---0-----3--0--**-|-------------------------|------------------------

Gb (1)---------2--1--4#2h-4----x-----------------2h-4p-2--x----2-----------

Db ------------------4#2h-4----x-----------------2h-4p-2--x----2-----------

Ab ---------2----------2|(2)---x-----------------2|-------x-----------0h...

Eb ---------------------|-------------------------|-------------------0----

* Rythm Fig. 1 Ends at left of #, Guit 2 plays part at right of #

1st Verse

w/Rythm fig. 1

B5

Eb ---------------------|-------------------------|------------------------

Bb ---------------------|-------------------------|------------------------

Gb ---------------------|-------------------------|-4--------------x--4----

Db ---------------------|-------------------------|-4--------------x--4----

Ab h2----------2----0h2-|(2)----------------------|-2--------------x--2----

Eb (0)---------0------0-|(0)----------------------|------------------------

Lie____to__me,___ and

E5

Eb ---------------------|-------------------------|------------------------

Bb ---------------------|-------------------------|------------------------

Gb (4)----------4-------|-------------------------|------------------------

Db (4)----------4-------|-------------------------|------------------------

Ab (2)----------2---0h2-|-(2)--------------2--0---|------x-----------------

Eb -------------------0-|-(0)-----------0--------2|---0--x-----------------

tell me everything is Lie____to__me,___

alright

w/rhy. fig. 1

B5 B6 B5

Eb ---------------------|-------------------------|

Bb ---------------------|-------------------------|

Gb --------4---4--------|-------------------------|

Db --------4---4---6--4-|(4)-------------------0--|

Ab -----2--2---2---2--2-|(2)----------------2-----|

Eb ---------------------|-------------------------|

and tell me that you'll stay for the night

Pre-chorus

Rythm Fig 2 Guit 1

E5 Chord Prog. 1> G5

(Guit 2=chord) let ring--------------

Eb ---------------------|-------------------------|------------------------

Bb ---------------------|-------------------------|------0--------0--------

Gb ---------------------|-------------------------|---------0--------0-----

Db -----0----2h4--------|---------0---------------|------------------------

Ab ----------------0h2--|(2)----------------------|------------------------

Eb ---------------------|------------0--0-----0-2-|-3----------------------

Tell me that

you'll nev

A5 B5

let ring--------

Eb ---------------------|-------------------------|

Bb -------0-------0-----|-------------------------|

Gb ----------2--------4-|-4-----------------------|

Db ----2--------------4-|-4----------------4p-2-4-|

Ab -0-------------------|-2----------------4p-2-4-|

Eb ---------------------|-------------------------|

er leave Oh, and I'll just try to make

E7 G5(3) G5(3) (End Chord Prog. 1)

Guit 1: let ring--------------------------------- (End Rhy.

Fig. 2)

Eb ---------------------|-------------------------|------------------------

Bb ---------------------|--------0----------------|-------0-------0--------

Gb ---------------------|-----------------0-----0-|(0)-------0-------------

Db ---------------------|--------------0----------|------------------------

Ab -2--0---------0------|-------------------------|------------------------

Eb -0-------0h2---------|-3-----------------------|------------------------

|

|

| Guit 3 (dist. with wah)

Eb ---------------------|-------------------------|------------------------

Bb -----------------7---|-------------------------|------------------------

Gb ------------------7h9|(9)~~~~~~~~~~~~~~~(9)\---|------------------------

Db --------------9------|-------------------------|------------------------

Ab ---------------------|-------------------------|------------------------

Eb ---------------------|-------------------------|------------------------

believe that everything, ev'rything you're telling me

is true

F#5

Guit 1

let ring----------------

Eb ---------------------|-------------------------|

Bb ---------------------|-------------------------|

Gb -----------3---------|-3-----------------------|

Db ------4---------4----|-------------------------|

Ab -------------------4-|-------------------------|

Eb -2-------------------|------------------2/-----|

|

| (lie to me)

|Guit 3

Eb ---------------------|-------------------------|

Bb ---------------------|-------------------------|

Gb ------7----------7---|-------7--9--9^r---------|

Db ---9-----9----9-----9|---7h9----------7h9--9~~~|

Ab ---------------------|-------------------------|

Eb ---------------------|-------------------------|

Come on baby, won't you just...

B5 E

Guits 1 & 2 in unison

Eb ---------------------|-------------------------|------------------------

Bb ---------------------|-------------------------|------------------------

Gb --------------------7|-------------------------|-1----------------------

Db -9----x-----7--9----7|-9----x-----7--9--7\-----|------------0--2----2---

Ab -9----x-----7--9-----|-9----x-----7--9--7\-----|-2----x-----0--2----2---

Eb -7----x--7-----------|------x--7---------------|-0----x--0--------------

| (Rhy. Fig 3) *Gtr 2 Omits top note (1)

|

|Guit 3

Eb ---------------------|-------------------------|------------------------

Bb ---------------------|-------------------------|------------------------

Gb ------------7-------7|-------------------------|-----------------7--9---

Db -9\7--------7--9----7|-------------------------|------------------------

Ab ---------------------|-------------------------|------------------------

Eb ---------------------|-------------------------|------------------------

Woh, come on baby Woh,

(Go ahead an lie to me)

F#5 B5 (Gtr 1 goes on with

(end Rhy. Fig 3) Rhy. Fill. 1)

Eb ---------------------|-------------------------|------------------------

Bb ---------------------|-------------------------|------------------------

Gb ---------------------|-------------7--------7--|------------------7\----

Db ----4----4--4--4--4--|9----x-------7--9--9--7--|-9----x-----7--9--7\----

Ab -4--4----4--4--4--4--|9----x----------9--9-----|-9----x-----7--9--------

Eb ----2----2--2--2--2-2/7----x--7----------------|------x--7--------------

|

|

|

Eb ---------------------|-------------------------|------------------------

Bb ---------------------|-------------------------|------------------------

Gb ---9~~-7-------------|-------------------------|------------------7-----

Db ---------9--7~~~~-9\-|-------------------------|------------------------

Ab ---------------------|-------------------------|------------------------

Eb ---------------------|-------------------------|------------------------

Yeah, won't you Oh, I'm sorry, oh my.

lie to me Go ahead and lie to me

w/ Rhy. Fill 1

E F#

Guit 2.

Eb ---------------------|-------------------------|

Bb ---------------------|-------------------------|

Gb ---------------------|--------3----3----x------|

Db ----------------2---2|--------4----4----x------|

Ab -2----x-------------2|--------4----4----x------|

Eb -0----x--0--/4-------|--------2----2----x--2/--|

|

|

|Guit 3.

Eb ----------------12^--|10-----------------------|

Bb ---------------------|---12~~~~~~~~~~~~~~~-12\-|

Gb ---------------------|-------------------------|

Db ---------------------|-------------------------|

Ab ---------------------|-------------------------|

Eb ---------------------|-------------------------|

Ah,______________yeah Lie to me___

Eb ---------------------|-------------------------|------------------------

Bb ---------------------|-------------------------|------------------------

Gb ---------------------|-------------------------|------------------------

Db ---------------------|-------------------------|------------------------

Ab ---------------------|-------------------------|------------------------

Eb ---------------------|-------------------------|------------------------

Get this song at:  amazon.com sheetmusicplus.com

Share your thoughts

0 Comments found