Jonny Lang

Jonny Lang - I Love You The Best guitar tab

-' I love you the best '-

performed by Jonny Lang

from the album Smokin

-----------------------

find more of Jonny Lang at

http://wanderworld.cjb.net

'-----------------------'

this is the basic chords in the song the ones in

if you have corrections please email them to me bluesy@worldonline.dk

the chords thrue this song goes A D E

when the A is played it goes back to a G for a quick stroke

A G D E

-5----3----5----7----

-7----5----5----7----

-7----5----7----9----

-6----4----7----9----

-5----3----7----9----

-5----3----5----7----

The main riff i got from Matt Miller E-mail: mill@infi.net

E-----------------------------------------------------

B-----------------------------------------------------

G-----------------------------------------------------

D---------10--12--10--12--10-----------------------

A----12-------------------------12--10--------------

E-----------------------------------------------------

Get this song at:  amazon.com sheetmusicplus.com

Share your thoughts

0 Comments found