Jonny Lang

Jonny Lang - Breaking Me guitar tab

Breakin' Me

(Jonny Lang, Kevin Bowe)

if you have corrections please email them to me bluesy@worldonline.dk

These tabs are not precise, but they work and are only one of the many ways i play this song.

remember that it has to be played from the heart, so its only an idea of how to play it.

Intro

C Am G F

-----------------3----------1-----

-----1------1------0------1---1---

---0------2----------0----------2-

------------------------3---------

-3------0-------------------------

---------------3------------------

Verse

C Am G F

---0-------0------3--------1---

----1-1-----1-1----0--------1--

--0--0----2---------0-0---2--2-

-------------------------3-----

-3-------0---------------------

-----------------3-------------

Refrain

Dm Dm C F

---1---------1---------0-------1--1-

----3---------3---------1-1---2-3-1-

--2--2-2----2--2-2----0--0------2-2-

-0---------0-----------------3------

---------------------3--------------

------------------------------------

The solo should be played in a C and add a few of the other notes into it and it should be

perfect.

Get this song at:  amazon.com sheetmusicplus.com

Share your thoughts

0 Comments found