Jonny Lang

Jonny Lang - Back For A Taste Of Your Love guitar tab

Back for a taste of your love

performed by Jonny Lang

from the album Lie to me

written by Syl Johnson, Darryl Carter & Brenda Johnson

CHORDS:

F# C# E Eb

E-----9-----9----7----6---| The basic chord is C#,

B----11-----9----9----8---| but only the refrain is

G----11----10----9----8---| played with chords in

D----11----11----9----8---| that order:

A-----9----11----7----6---| F# C# E Eb C#

E-----X-----9----X----X---|

BASIC RIFFS:

Riff A Riff B

E------------------------|---------------------------|

B------------------------|---------------------------|

G------------------------|---------------------------|

D-----------------9----9-|------------10p9h10-9----9-|

A------------9-12---12---|----------9-----------12---|

E---10-12-13-------------|-10-12-13------------------|

SOLO: I don't play the solo exactly like Jonny cause it's much

better to let yourself go and play what you think sounds

good. The solo is based on an C#m pentatonik

scale (9th fret). If you don't know what a pentatonik

scale is, email me to flori.geierstanger@allgaeu.org.

E-------------------| This is the

B------15~~~~~~-----| first note of

G-------------------| the beginning

D-------------------| solo!

A-------------------|

E-------------------|

LYRICS:

( beginning solo )

Here I come

I'm coming for a taste of your love. Riff A and

here I come, baby / Riff B

because I like what you do for me. /

Little by little, bit by bit. Refrain

I'm falling in love all over again. / (Chords)

Here I come,

I'm coming for a taste of your love

Here I come now, baby

just like I did before. Riff A and

And I'm coming back / Riff B

'cause this time I'm sure. /

It takes two, to make it Refrain

and I know you can take it, again. / (Chords)

Here I come

I'm back for a taste of your Love. Riff A and

Here I come / Riff B

I'm coming back for you now. /

Guitar ( 1st solo )

What you've been

just come down on me. Riff A and

You've got the lock, pretty baby / Riff B

but I've got the key. /

Little by little, bit by bit Refrain

I'm falling in Love all over again. / (Chords)

Here I come

I'm coming for a taste of your love Riff A and

Here I come now baby, / Riff B

I'm back for a taste of your love. /

You know, I'm coming back for a taste of your love

You know, I've got to come back now baby.

( 2nd solo )

tabbed by Florian Geierstanger

(flori.geierstanger@allgaeu.org)

Lyrics corrected by Eva Heinzelmann

Get this song at:  amazon.com sheetmusicplus.com

Share your thoughts

0 Comments found