Join The Club

Walang Pakialam Tabs



More from Join The Club

Join The Club Tabs
Join The Club Lyrics



Walang Pakialam

Join the Club

Tabbed by: Jopa Santiago



Note for the editors: I submitted an entry for this song that may look exactly like this

this is more correct. Please approve this instead of my earlier submission because I

the 2nd interlude. Thanks



Note: Strumming = Very Fast

(Pwede nyong baguhin kung ilang beses nyo gustong i-strum at kung kaano kabilis. Kayo na

bahala sa timing)





Intro:

(Note: / = slide)

e ----------------|

B ----------------|

G --9-7-5-7-9/7-5-|

D --9-7-5-7-9/7-5-|

A --7-5-3-5-7/5-3-|

E ----------------|



e ------------------------------------------------------------------|

B ------------------------------------------------------------------|

G ------------------------------------------------------------------|

D ---7-7777777777777-3-3333333333333-5-55555555555555--333-3--555-5-|

A ---7-7777777777777-3-3333333333333-5-55555555555555--333-3--555-5-|

E ---5-5555555555555-1-1111111111111-3-33333333333333--111-1--333-3-| (Repeat twice)



Verse:

Simple ang ibig...../Bukang bibig.../Ngiti nya'y...../Walang Pakialam

e ------------------------------------------------------------------|

B ------------------------------------------------------------------|

G ------------------------------------------------------------------|

D ---7-7777777777777-3-3333333333333-5-55555555555555--333-3--555-5-|

A ---7-7777777777777-3-3333333333333-5-55555555555555--333-3--555-5-|

E ---5-5555555555555-1-1111111111111-3-33333333333333--111-1--333-3-|



e ----------------------------------------------------------------------|

B ----------------------------------------------------------------------|

G ----------------------------------------------------------------------|

D ---7-7777777777777-3-3333333333333-5-55555555555555-3-333333-5-555555-|

A ---7-7777777777777-3-3333333333333-5-55555555555555-3-333333-5-555555-|

E ---5-5555555555555-1-1111111111111-3-33333333333333-1-111111-3-333333-|



Ano bang dapat....../Ang dami......./Hindi ko......../Walang Pakialam (Shift agad sa

chord below.)

e ----------------------------------------------------------------------|(Maraming parts

kanta ang ganitong magshishift agad)

B ----------------------------------------------------------------------|(Pakinggan nyo

yung cd para mas magets nyo. ^_^)

G ----------------------------------------------------------------------|

D ---7-7777777777777-3-3333333333333-5-55555555555555-3-333333-5-555555-|

A ---7-7777777777777-3-3333333333333-5-55555555555555-3-333333-5-555555-|

E ---5-5555555555555-1-1111111111111-3-33333333333333-1-111111-3-333333-|



(Babagal ang strumming sa part na ito)

Sasama-sa kanya o mai - iwan na na - maaa - aaan

e ------------------------------------------------------------------------------|

B ------------------------------------------------------------------------------|

G ------------------------------------------------------------------------------|

D ---10-10-10-10-10-10-10-10--5-5-5-5-5-5-5-5--7-7-7-7-7-7-7-7--3-3-3-3-5-5-5-5-|

A ---10-10-10-10-10-10-10-10--5-5-5-5-5-5-5-5--7-7-7-7-7-7-7-7--3-3-3-3-5-5-5-5-|

E-----8--8--8--8--8--8--8--8--3-3-3-3-3-3-3-3--5-5-5-5-5-5-5-5--1-1-1-1-3-3-3-3-|



(Bibilis na uli yung strumming sa part na ito)

At bakit siya ganyan? /'Di ko malaman/Ang daming dahilan/Walang pakialam

e ----------------------------------------------------------------------------------------|

B ----------------------------------------------------------------------------------------|

G ----------------------------------------------------------------------------------------|

D ---10-101010101010101010101010101010-5-55555555555555-7-7777777777777-3-333333-5-555555-|

A ----8--8-8-8-8-8-8-8-8-8-8-8-8-8-8-8-5-55555555555555-7-7777777777777-3-333333-5-555555-|

E ----8--8-8-8-8-8-8-8-8-8-8-8-8-8-8-8-3-33333333333333-5-5555555555555-1-111111-3-333333-|



e ----------------|

B ----------------|

G --9-7-5-7-9/7-5-|

D --9-7-5-7-9/7-5-|

A --7-5-3-5-7/5-3-|

E ----------------|



Interlude:

e -------------------------------------------------------------------------------------------------------|

B -------------------------------------------------------------------------------------------------------|

G -------------------------------------------------------------------------------------------------------|

D ---3-3333333333333-5-55555555555555-7-7777777777777-3-3333333333333-5-55555555555555-3-333333-5-555555-|

A ---3-3333333333333-5-55555555555555-7-7777777777777-3-3333333333333-5-55555555555555-3-333333-5-555555-|

E ---1-1111111111111-3-33333333333333-5-5555555555555-1-1111111111111-3-33333333333333-1-111111-3-333333-|



Simple ang ibig...../Bukang bibig.../Ngiti nya'y....../Walang Pakialam (shift agad sa

chord below)

e ----------------------------------------------------------------------|

B ----------------------------------------------------------------------|

G ----------------------------------------------------------------------|

D ---7-7777777777777-3-3333333333333-5-55555555555555-3-333333-5-555555-|

A ---7-7777777777777-3-3333333333333-5-55555555555555-3-333333-5-555555-|

E ---5-5555555555555-1-1111111111111-3-33333333333333-1-111111-3-333333-|





Ano ang dapat....../Ang dami......./Hindi ko......../Walang Pakialam (shift agad sa

chord below)

e ----------------------------------------------------------------------|

B ----------------------------------------------------------------------|

G ----------------------------------------------------------------------|

D ---7-7777777777777-3-3333333333333-5-55555555555555-3-333333-5-555555-|

A ---7-7777777777777-3-3333333333333-5-55555555555555-3-333333-5-555555-|

E ---5-5555555555555-1-1111111111111-3-33333333333333-1-111111-3-333333-|



Sasama-sa kanya o mai - iwan na na - maaa - aaan

e ----------------------------------------------------------------------------------------|

B ----------------------------------------------------------------------------------------|

G ----------------------------------------------------------------------------------------|

D ---10-101010101010101010101010101010-5-55555555555555-7-7777777777777-3-333333-5-555555-|

A ----8--8-8-8-8-8-8-8-8-8-8-8-8-8-8-8-5-55555555555555-7-7777777777777-3-333333-5-555555-|

E ----8--8-8-8-8-8-8-8-8-8-8-8-8-8-8-8-3-33333333333333-5-5555555555555-1-111111-3-333333-|



(Isang strum lang sa unang part nito. Tapos let ring. Sa huling part, babagal yung strumming)

At bakit siya ganyan? /'Di ko malaman /Ang daming dahilan/ Walang pakialam

e ----------------------------------------------------------------------------------------|

B ----------------------------------------------------------------------------------------|

G ----------------------------------------------------------------------------------------|

D ----10----------------5-55555555555555-7-7777777777777-3-3-3-3-3-3-3-3-5-5-5-5-5-5-5-5--|

A -----8----------------5-55555555555555-7-7777777777777-3-3-3-3-3-3-3-3-5-5-5-5-5-5-5-5--|

E -----8----------------3-33333333333333-5-5555555555555-1-1-1-1-1-1-1-1-3-3-3-3-3-3-3-3--|



Interlude:

e ------------------------------------------------------------------------------------------------------------------|

B ------------------------------------------------------------------------------------------------------------------|

G ------------------------------------------------------------------------------------------------------------------|

D --7-7-7-7-7-7-7-7-5-5-5-5-5-5-5-3-3-3-3-3-3-3-3--3-3-3-3-3-3-3-3--5-5-5-5-3-3-3-3-2-2-2-2-2-2-2-2-2-2-2-2-2-2-2-2-|

A --7-7-7-7-7-7-7-7-5-5-5-5-5-5-5-3-3-3-3-3-3-3-3--3-3-3-3-3-3-3-3--5-5-5-5-3-3-3-3-2-2-2-2-2-2-2-2-2-2-2-2-2-2-2-2-|

E --5-5-5-5-5-5-5-5-3-3-3-3-3-3-3-1-1-1-1-1-1-1-1--1-1-1-1-1-1-1-1--3-3-3-3-1-1-1-1-0-0-0-0-0-0-0-0-0-0-0-0-0-0-0-0-|



e ----------------------------------------------------------------------------------------------------------------------------------|

B ----------------------------------------------------------------------------------------------------------------------------------|

G ----------------------------------------------------------------------------------------------------------------------------------|

D --7-7-7-7-7-7-7-7-5-5-5-5-5-5-5-3-3-3-3-3-3-3-3--3-3-3-3-3-3-3-3--5-5-5-5-3-3-3-3-2-2-2-2-2-2-2-3-2-2-2-2-2-2-2-3-2-2-2-2-2-2-2-3-|

A --7-7-7-7-7-7-7-7-5-5-5-5-5-5-5-3-3-3-3-3-3-3-3--3-3-3-3-3-3-3-3--5-5-5-5-3-3-3-3-2-2-2-2-2-2-2-3-2-2-2-2-2-2-2-3-2-2-2-2-2-2-2-3-|

E --5-5-5-5-5-5-5-5-3-3-3-3-3-3-3-1-1-1-1-1-1-1-1--1-1-1-1-1-1-1-1--3-3-3-3-1-1-1-1-0-0-0-0-0-0-0-1-0-0-0-0-0-0-0-1-0-0-0-0-0-0-0-1-|



e ---------------|

B ---------------|

G --99-77-55-44--|

D --99-77-55-44--|

A --77-55-33-22--|

E ---------------|





(Tigigisang strum lang bawat line, pero let each strum ring. Except sa last line)

Simple ang ibig..... /Bukang bibig... /Ngiti nya'y...... /Walang Pakialam

e ------------------------------------------------------------------------------------------|

B ------------------------------------------------------------------------------------------|

G ------------------------------------------------------------------------------------------|

D -------7-------------------3-------------------5-------------------33-----55--------------|

A -------7-------------------3-------------------5-------------------33-----55--------------|

E -------5-------------------1-------------------3-------------------11-----33--------------|



Ano ang dapat....../Ang dami......./Hindi ko......../Walang Pakialam

e ----------------------------------------------------------------------|

B ----------------------------------------------------------------------|

G ----------------------------------------------------------------------|

D ---7-7777777777777-3-3333333333333-5-55555555555555-3-333333-5-555555-|

A ---7-7777777777777-3-3333333333333-5-55555555555555-3-333333-5-555555-|

E ---5-5555555555555-1-1111111111111-3-33333333333333-1-111111-3-333333-|



e ----------------|

B ----------------|

G --9-7-5-7-9/7-5-|

D --9-7-5-7-9/7-5-|

A --7-5-3-5-7/5-3-|

E ----------------|





-=END=-



Chords & Lyrics (Use Power Chords)



Intro: Am-F-G-F-G



Am-F-G-F-G

Simple ang ibig mangyari

Bukang bibig lang siya parati

Ngiti niya'y di matatakasan

Walang pakialam



Am-F-G-F-G

Ano bang dapat na mangyari?

Ang dami-daming sinasabi

Hindi ko maintindihan

Walang pakialam



C-G-A-F-G

Sasama sa kanya

O maiiwan na naman?

At bakit siya ganyan?

'Di ko malaman

Ang daming dahilan

Walang pakialam

--------------------





Thanks sa Join the Club. Sobrang Ok kayo!

Ang tabs na ginawa ko ay dinededicate sa aking mga kaibigan. Kay Jose, Mikel, Jul,

Gian, Alvin, Jas at lalu na kay Jaymie. :)



-jopa



Email me for Comments/Corrections: webmaster at tabs-database.com.comAdded by tabs-database.com and our distinguished partners
Get this song at amazon.com      Ebay     Ringtones Ringtones  


Learn to play: Songwriting, Piano, Harmonica, Guitar

Related Join The Club Tabs

Lunes tabs
Nobela tabs
Hayaang Maidlip tabs
Walang Pakialam tabs
Emotional Overdose tabs
Hayaang Maidlip Bass tabs
Tinig tabs
Nakalimutan Ko Na Bang Magmahal tabs
Handog tabs
Dekada tabs
Tinig Live tabs
Tinig Live Bass tabs


Guitar Tabs









All tabs are property and copyright of their owners. All tabs provided for educational purposes only. Privacy Policy, DMCA