Join The Club

Tinig Tabs



More from Join The Club

Join The Club Tabs
Join The Club Lyrics



standard tuning.....

This is my first time to tab a song.....pasensya kung my mali, ganyan lang ang pagkakarinig ko sa kanta

*=palm mute

/=slide

~=let it ring

S=stop for a while

Intro: strumming ito.. just figure it when you listen to the song.

e--------------------------------------------------------------------------|

b--------------------------------------------------------------------------|

g-------------7777777/9-----------7777777/9S----------222222S-7777777/9~~~-|

d---777777777-7777777/9--77777777-7777777/9S--444444S-222222S-7777777/9~~~-|

a---777777777-5555555/7--77777777-5555555/7S--444444S-000000S-5555555/7~~~-|

e---555555555------------55555555-------------222222S----------------------|

A D E A D E F# E D E

tapos ung isang gitara pagdating sa F# hanggang D/E. ganito ung narinig ko.

e-------------------------------------------------------|

b-------------------------------------------------------|

g--1111111111111111/9S--99999999/7S--777777777777-------|

d--1111111111111111/9S--99999999/7S--777777777777-2~~~--|

a--9-9-9-9-9-9-9-9-/7S--77777777/5S--555555555555-2~~~--|

e-------------------------------------------------0~~~--|

F# E E D D E



Verse:1

e----------------------------------------------------------------------|

b----------------------------------------------------------------------|

g---------------------7-777777-7-7/9-7/9--------------------2222222S---|

d---7-777777-7-777777-7-777777-7----------7-777777-7-777777-2222222S---|

a---7-777777-7-777777-5-555555-5----------7-777777-7-777777-0000000S---|

e---5-555555-5-555555---------------------5-555555-5-555555------------|

****** ****** ****** ****** ******

A A A A D D D D/E D/E A A A A E

tapos pagdating sa E. ganito ang narinig ko sa isang gitara.

e--------------|

b--------------|

g---99999999S--|

d---99999999S--|

a---77777777S--|

e--------------|

E

e-------------------------------------------------------|

b-------------------------------------------------------|

g----------------77777777777----------------7777777S----|

d---777777777777-77777777777------4------2--7777777S----|

a---777777777777-55555555555------4------2--5555555S----|

e---555555555555-------------2222-2-0000-0--------------|

**** ****

A D F# F# E E D

tapos pagdating ulit sa F# hanggang E. ganito uli ang narinig ko sa isang gitara.

e---------------------------------------------------------|

b---------------------------------------------------------|

g--------11------9--7777777S------------------------------|

d--------11------9--7777777S------------------------------|

a---9999-9--7777-7--5555555S------------------------------|

e---------------------------------------------------------|

**** ****

Chorus:slow strumming sa F# at D

e-------------------------------------------------------------------------|

b-------------------------------------------------------------------------|

g-----------22222222-77777777-222222222222S-----------2222222-------7777--|

d--77777777-22222222-77777777-222222222222S--77777777-2222222-44444-7777--|

a--77777777-00000000-55555555-000000000000S--77777777-0000000-44444-5555--|

e--55555555----------------------------------55555555---------22222-------|

A E D E A E F# D

tapos pagdating sa F# at D. ganito ang narinig ko sa isang gitara.

e---------------------|

b---------------------|

g---1111111111--7777--|

d---1111111111--7777--|

a---9-9-9-9-9---5555--|

e---------------------|

tapos intro chords ulit.



Verse:2

e---------------------------------------------------------------------|

b---------------------------------------------------------------------|

g---------------------7-777777-7-7/9-7/9--------------------2222222S--|

d---7-777777-7-777777-7-777777-7----------7-777777-7-777777-2222222S--|

a---7-777777-7-777777-5-555555-5----------7-777777-7-777777-0000000S--|

e---5-555555-5-555555---------------------5-555555-5-555555-----------|

****** ****** ****** ****** ******

A A A A D D D D/E D/E A A A A E

tapos pagdating sa E. ganito uli ang narinig ko sa isang gitara.

e--------------|

b--------------|

g---99999999S--|

d---99999999S--|

a---77777777S--|

e--------------|

E

e-------------------------------------------------------------|

b-------------------------------------------------------------|

g------------------------7------7-7----------------77777777S--|

d--------7------7-7------7------7-7-------4------2-77777777S--|

a--------7------7-7-5555-5-5555-5-5-------4------2-55555555S--|

e---5555-5-5555-5-5------------------2222-2-0000-0------------|

**** **** **** **** **** ****

A A A A A D D D D D F# F# E E D

tapos chorus chords ulit.



tapos ung adlib, naglalaro lang sa D, E, at F#



tapos intro chords ulit.

tapos may ganto sa huli ng chorus dito.

e-------------|

b-------------|

g--7-8-9-11---|

d-------------|

a--5-6-7-9----|

e-------------|

tapos chorus chords ulit pero clean lang ang effects.



pasensya na kung may kulang at mali. cause dis is my frst tab.

e-mail nyo nlang ang suggestions and comments sa e-mail add ko.

webmaster at tabs-database.com.com

webmaster at tabs-database.com.com

I accept good and bad comments.

I also have friendster account on webmaster at tabs-database.com.comAdded by tabs-database.com and our distinguished partners
Get this song at amazon.com      Ebay     Ringtones Ringtones  


Learn to play: Songwriting, Piano, Harmonica, Guitar

Related Join The Club Tabs

Lunes tabs
Nobela tabs
Hayaang Maidlip tabs
Walang Pakialam tabs
Emotional Overdose tabs
Hayaang Maidlip Bass tabs
Tinig tabs
Nakalimutan Ko Na Bang Magmahal tabs
Handog tabs
Dekada tabs
Tinig Live tabs
Tinig Live Bass tabs


Guitar Tabs









All tabs are property and copyright of their owners. All tabs provided for educational purposes only. Privacy Policy, DMCA