Join The Club

Tinig Live Bass Tabs



More from Join The Club

Join The Club Tabs
Join The Club Lyrics

Title: Tinig (Live)

Artist: Join The Club



This is the new song of Join The Club

PLease support this song..

OPM AUTHORITY RULES!



Chord used:

G C Bm Em D F#m

e-3-|-3-|-2-|---|-2-|-2-|

b-3-|-3-|-3-|---|-3-|-2-|

g-4-|-5-|-4-|---|-3-|-2-|

D-5-|-5-|-4-|-2-|---|-4-|

A-5-|-3-|-2-|-2-|---|-4-|

E-3-|---|---|---|---|-2-|





Intro:



G----------------------------------------------|

D----------------------------------------------|

A-------33333-0-2222-3-5------3333--0-2222-3-5-|

E-33333-------------------3333-----------------|



G----------------------------------------|

D----------------------------------------|

A-7777-9999-10101010-9/10\9/7\5----------|

E----------------------------------------|



Verse:

Makikilala ba ang tinig .....

G---------------------------------------------------------|

D---------------------------------------------------------|

A-------33333-0-2222-3-5------3333--77777-5555-3333-2s3s2-|

E-33333-------------------3333----------------------------|





Chorus:

Sabihin...mo sa'kin... Ang tinig....ang tinig.....

G------------------------------|---------------------------|

D------------------------------|---------------------------|

A-----3333--7777--5555--3333---|----------777-555-333------|

E-3333-------------------------|-3333--222-----------------|



Lyrics:



Verse I:



Makikilala ba ang tinig

Pag tumawag sa teleponong

Kahapon pa walang sumasagot

At kung sakaling sasabihin na

Ikaw pa rin sa aking damdamin

Masilayan nga ba ang ngiti sa iyong mukha



Chorus:



Sabihin...mo sa'kin...kung ayaw mong marinig..

Ang tinig....ang tinig.....

Sabihin mo sa'kin kung ayaw mong marinig...



Verse II:



Pa'no iiwasan kalimutan kang tawagan

Eh kasi..ayoko nga...walang magagawa...

At nag baka sakaling marinig

Lamig tamis ng iyong tinig...

Masilayan nga ba ang ngiti sa 'yong mukha...



Chorus:



Sabihin...mo sa'kin...kung ayaw mong marinig..

Ang tinig....ang tinig.....

Sabihin mo sa'kin kung ayaw mong marinig...

(Repeat Chorus)

Added by tabs-database.com and our distinguished partners
Get this song at amazon.com      Ebay     Ringtones Ringtones  


Learn to play: Songwriting, Piano, Harmonica, Guitar

Related Join The Club Tabs

Lunes tabs
Nobela tabs
Hayaang Maidlip tabs
Walang Pakialam tabs
Emotional Overdose tabs
Hayaang Maidlip Bass tabs
Tinig tabs
Nakalimutan Ko Na Bang Magmahal tabs
Handog tabs
Dekada tabs
Tinig Live tabs
Tinig Live Bass tabs


Guitar Tabs









All tabs are property and copyright of their owners. All tabs provided for educational purposes only. Privacy Policy, DMCA