Johnny Lee

Johnny Lee - Looking For Love intro guitar tab

Johnny Lee - Looking For Love (intro)

By axehappy - axehappy@

****************************************************************************************

h = hammer-on p = pulloff

/ = slide up \ = slide down

****************************************************************************************

E--3---3-3-3---3--5---5-5---5-----7-7---9---7-5--3---3-3-3---3--5---5-5---5--

B--3h5-5-5-5p3-5--5h7-7-7p5-7--------------------3h5-5-5-5p3-5--5h7-7-7p5-7--

G-------------4------------6---6/7-7-7/9-9\7-6--------------4------------6---

D----------------------------------------------------------------------------

A----------------------------------------------------------------------------

E----------------------------------------------------------------------------

E-----7-7---9---7-5---3-2p0-0------|

B------------------------------3---|

G--6/7-7-7/9-9\7-6-6\4-2-----------|

D----------------------------------|

A----------------------------------|

E----------------------------------|

Get this song at:  amazon.com sheetmusicplus.com

Share your thoughts

0 Comments found