Johnny Cash

Johnny Cash - Sam Hall solo guitar tab

Johnny Cash

“Sam Hall”

Seminole9300

Acoustic Solo

e--------------------------

B--------------------------

G--------------------------

D--------------------------

A-------2-3-5b-5b-3-------3

E-3-3-5-------------5-3-5—

e--------------------------

B--------------------------

G--------------------------

D-----------5-5-5-7-5---5-5

A-3-3-3-5s7-----------7----

E--------------------------

e------------------

B------------------

G--------5-5-5-5---

D-5-5-5----------7b

A------------------

E------------------

e-------------------

B-------------------

G-5-5-5-5-----------

D---------7b-5------

A--------------7-5-3

E-------------------

e-----------------------

B-----------------------

G----------------------5…play that last note or

D-5s7-7-5-----------5--- strum a C-chord

A---------7-5-3-5s7-----

E-----------------------

Get this song at:  amazon.com sheetmusicplus.com

Share your thoughts

0 Comments found