Johnny Cash

Johnny Cash - Ring Of Fire guitar tab

tabs-database.com[http://www.tabs-database.com.com/]

Song: Ring of Fire

Artist: Johnny Cash (Joaquin Phoenix)

Tuning: Standard

I couldnt find the main riff for this song on any tab so i figured it out my self. It sweet!.

Johnny Cash is the bomb.

Please rate or email me at webmaster at tabs-database.com.com

Main Riff

|-------------------------------------------------------------------------------------------------------------|

|-------------------------------------------------------------------------------------------------------------|

|-------------------------------------------------------------------------------------------------------------|

|---------------------0---------------------------------------------------------------------------------------|

|---7-7-7-7-7-7 ---9-----7----------------------4-4-4-4-4-4--5--2-4------------------------------------------|

|-------------------------------------------------------------------------------------------------------------|

|-------------------------------------------------------------------------------------------------------------|

|-------------------------------------------------------------------------------------------------------------|

|-------------------------------------------------------------------------------------------------------------|

|------------------------------------------0------------------------------------------------------------------|

|--0-7-5-4----0-4-5-----7-7-7-7-7-7----9-----7-------------------------0--4-4-4-4-4-4--5-2-4----------------|

|-------------------------------------------------------------------------------------------------------------|

G C G

Love Is A Burning Thing

C G

And It Makes A Firery Ring

C G

Bound By Wild Desire

C G

I Fell Into A Ring Of Fire

CHORUS:

D C G

I Fell Into A Burning Ring Of Fire

D

I Went Down, Down, Down

C G

And The Flames Went Higher

And It Burns, Burns, Burns

C G

The Ring Of Fire

C G

The Ring Of Fire

Repeat INTRO Twice

Repeat CHORUS

C G

The Taste Of Love Is Sweet

C G

When Hearts Like Ours Meet

C G

I Fell For You Like A Child

C G

Ohh, But The Fire Went Wild

Repeat CHORUS

Repeat CHORUS

And It Burns, Burns, Burns

C G

The Ring Of Fire

C G

The Ring Of Fire

Added by tabs-database.com and our distinguished partners

Get this song at:  amazon.com sheetmusicplus.com

Share your thoughts

0 Comments found