Johnny Cash

Johnny Cash - Folsom Prison Blues Bass guitar tab

----------------------------------------------------------------------------

Folsom Prison Blues - Johnny Cash

----------------------------------------------------------------------------

Tabbed By : MATTHEW STILES

e-mail: webmaster at tabs-database.com.com

Tuning:Standard

This is what the Bass Fiddle Does, mute it all if u want

G|--------------------------------------------------------------------------|

D|------1-1-------2---2---2---2---2---2---2----2----------------------------|

A|--2-2-----2-------2-------2-------2-------2-------------------------------|

E|------------2-0-------0-------0-------0-----------------------------------|

8 times then you do the same thing one string down 4 times then

to the top string 3 times and then this

G|---2---2---2---2----------------------------------------------------------|

D|-----1-------1------------------------------------------------------------|

A|-2-------2-------2-2-2----------------------------------------------------|

E|-----------------------2-0------------------------------------------------|

and then start at the beggining again 4 the second verse.

the solo i cant really tell what he does so i do the same thing as the first verse.

| / slide up

| \\ slide down

| h hammer-on

| p pull-off

| ~ vibrato

| + harmonic

| x Mute note

============================================================================Added by tabs-database.com and our distinguished partners

Get this song at:  amazon.com sheetmusicplus.com

Share your thoughts

0 Comments found