Joe Diffie

Joe Diffie - Pickup Man lead guitar tab

Key:

/ = Slide b = Bend x = muted ~~ = Vibrato

h = Hammer

Intro:

* Start here during the "G"'s in

the chord progession during the

verses.

E-----1------------------------------------------------------------

B-----3-2-1--------------------------------------------------------

G---0-------3b-----------------------0----------3b-0------0-0---0--

D--------------3-0----------0-2------0----0-3---------3---0-0-3-0--

A------------------4-3-1b------------------------------------------

E--------------------------------*3--3--------3---------3----------

E------------------------------------------------------------------

B------------------------------------------------------------------

G---------0----------3b-0------0-0---0-----------------------------

D---------0----0-3---------3---0-0-3-0-----------------------------

A------------------------------------------------------------------

E-1b------3--------3---------3-------------------------------------

Play that through the intro and through the "G"'s in the chord

progression through the verses until you hit the "C" in the

chord progession. Then try this:

E------------------------------------------------------------------

B------1------1--1----------1--------------------------------------

G------0------0--0-------3--0--------3---5\3--0----0---------------

D------------------------------------5---5\3--0----0---------------

A-1/3-----------------------------3--------------------------------

E--------------------------------------------------3---------------

During the "D"'s in the chord progession during the verses,

this sounds right:

E------------------------------------------------------------------

B-----3---------------------3-3------------------------------------

G-----2----2-----------2-2--2-2------------------------------------

D--0-------0--0--------0-0-----------------------------------------

A---------------0--3b-------------3--1-----------------------------

E------------------------------------------------------------------

Solo:

E----8-----3-------------------------------------------------------

B---x---------------------------------------------7---6---5--------

G--x---7b---5b--3--0------------------------------7---6---5--------

D---------------------------------------3h4--4-4----4---4----------

A---------------------3-3-~~~~~~--------3h5------------------------

E---------------------------------3-4-5----------------------------

E----------10--10---10--\--8~~~~~----------------------------------

B--5/7--x--10--10---10--\--8~~~~~----------------------------------

G--5/7--x--9b--9b---9b--\--7~~~~-----------------------------------

D------------------------------------------------------------------

A------------------------------------------------------------------

E------------------------------------------------------------------

During the Chorus and Bridge, I just hit the chords and sometimes

ad-lib some picking.

I didnt include the words or the chord progression because that is

already available on this site.

Get this song at:  amazon.com sheetmusicplus.com

Share your thoughts

0 Comments found