Jimmy Buffett

Jimmy Buffett - Why Don't We Get Drunk solo guitar tab

-----------------------------------------------------------

---------10-10----10-12b-10--------------------------------

--7/11-11------11-----------11-9-7---7-9-7-----7-----------

-----------------------------------9-------9-7-------------

-----------------------------------------------------------

-----------------------------------------------------------

----------------------10--------------7--------------------

----------10-10----10----12-10----------10-7---7-----------

--7/11-11-------11-------------11-9-7--------7----9--------

-----------------------------------------------------------

-----------------------------------------------------------

-----------------------------------------------------------

---------------7-10-7-12b-10-7----12-10--------------------

-------------------------------10-------12-10--------------

----7-------7---------------------------------11-9-7---7---

-/9---5-7-9------------------------------------------9-----

-----------------------------------------------------------

-----------------------------------------------------------

------------------------------3----------------------------

------------------------------3----------------------------

-7-9-7------------------------0----------------------------

-------9-7---7----------------0----------------------------

-----------9---7-5------------2----------------------------

----------------------0-1-2-3-3----------------------------

why don't we get drunk....

Get this song at:  amazon.com sheetmusicplus.com

Share your thoughts

0 Comments found