Jimmy Buffett

Jimmy Buffett - Margaritaville Multi Guitar Arrangement guitar tab

Margaritaville

by Jimmy Buffet

Tunings

Gtr I (D A D G B E)

Gtr II (D A D G B E)

Gtr III (E A D G B E) - 'Recorder Arranged for Guitar'

Gtr IV (E A D G B E)

Intro

D G

4/4

Gtr I

E E E E +E E E E Q E E +E E Q

| | | | | | | | | | | | |

/ / / / / / / / / / / / /

Gtr II

E E E E +E E E E Q E E +E E Q

|-2-2-2-2-(2)-2--2---|-3---3-3-(3)-3--3--|

|-3-3-3-3-(3)-3--3---|-0---0-0-(0)-0--0--|

|-2-2-2-2-(2)-2--2---|-0---0-0-(0)-0--0--|

|-0-0-0-0-(0)-0--0---|-0---0-0-(0)-0--0--|

|--------------------|-------------------|

|--------------------|-5---5-5-(5)-5--5--|

|

| Gtrs III, IV

| e e e E +E Q. e e e E +E Q.

|-5-5-5-3-(3)-5------|-5-5-5-3-(3)-5-----|

|-7-7-7-5-(5)-7------|-7-7-7-5-(5)-7-----|

|--------------------|-------------------|

|--------------------|-------------------|

|--------------------|-------------------|

|--------------------|-------------------|

A7 A7sus4 D Dsus4

E E E E +E E Q Q E E +E E E E +E E E E Q Q

| | | | | | | | | | | | | | | | | | | |

/ / / / / / / / / / / / / / / / / / / /

E E E E +E E Q Q E E +E E E E +E E E E Q Q

|-0-0-0-0-(0)-0-0---|--2---2-2-(2)-2-2-2-|-(2)-2-2-2-2--3---||

|-2-2-2-2-(2)-3-3---|--3---3-3-(3)-3-3-3-|-(3)-3-3-3-3--3---||

|-0-0-0-0-(0)-0-0---|--2---2-2-(2)-2-2-2-|-(2)-2-2-2-2--2---||

|-2-2-2-2-(2)-2-2---|--0---0-0-(0)-0-0-0-|-(0)-0-0-0-0--0---||

|-0-0-0-0-(0)-0-0---|--------------------|--------------0---||

|-------------------|--------------------|--------------0---||

|

| e Q E +E e e E +W W

|-7-7---7-(7)-5-3-2-|-(2)----------------|------------------||

|-8-8---8-(8)-7-5-3-|-(3)----------------|------------------||

|-------------------|--------------------|------------------||

|-------------------|--------------------|------------------||

|-------------------|--------------------|------------------||

|-------------------|--------------------|------------------||

Verses

$

D Dsus4

Q E E +E Q E +Q E E +E E Q E E Q E E E E +E E E E +E E Q

| | | | | | | | | | | | | | | | | | | | | | | | | |

/ / / / / / / / / / / / / / / / / / / / / / / / / /

W W W W

||-----------------|-----------------|----------------|------------------|

||o----------------|-----------------|----------------|------------------|

||-----------------|-----------------|----------------|------------------|

||-----------------|-----------------|----------------|------------------|

||o----------------|-----------------|----------------|------------------|

||-----------------|-----------------|----------------|------------------|

D A Asus4

E E E E +E E E E +E E E E E E Q Q E E +E E E E +E E E E E E E E

| | | | | | | | | | | | | | | | | | | | | | | | | | | | | |

/ / / / / / / / / / / / / / / / / / / / / / / / / / / / / /

W W W W

|------------------|-----------------|-----------------|-------------------|

|------------------|-----------------|-----------------|-------------------|

|------------------|-----------------|-----------------|-------------------|

|------------------|-----------------|-----------------|-------------------|

|------------------|-----------------|-----------------|-------------------|

|------------------|-----------------|-----------------|-------------------|

A Asus4 A A7sus4

E E E E +E E E E E E E E +E E E E E E E E +E E E E +E E E E +E E E E

| | | | | | | | | | | | | | | | | | | | | | | | | | | | | | | |

/ / / / / / / / / / / / / / / / / / / / / / / / / / / / / / / /

W W W W

|------------------|------------------|------------------|--------------------|

|------------------|------------------|------------------|--------------------|

|------------------|------------------|------------------|--------------------|

|------------------|------------------|------------------|--------------------|

|------------------|------------------|------------------|--------------------|

|------------------|------------------|------------------|--------------------|

A D DsuD4 D7 G6

E E E E +E E E E +E E E E +E E E E E E E E +E Q E +E E E E +E E E E

| | | | | | | | | | | | | | | | | | | | | | | | | | | | | | |

/ / / / / / / / / / / / / / / / / / / / / / / / / x / / / / /

W W W W

|------------------|-------------------|-----------------|--------------------||

|------------------|-------------------|-----------------|--------------------||

|------------------|-------------------|-----------------|--------------------||

|------------------|-------------------|-----------------|--------------------||

|------------------|-------------------|-----------------|--------------------||

|------------------|-------------------|-----------------|--------------------||

Chorus

G A7 D DsuD7

Q E E Q E E Q Q E E Q Q E E E Q E

| | | | | | | | | | | | | | | | |

/ / / / / / / / / / / / / / / / /

W W W

|---------------|--------------|---------------|

|---------------|--------------|---------------|

|---------------|--------------|---------------|

|---------------|--------------|---------------|

|---------------|--------------|---------------|

|---------------|--------------|---------------|

G6 G A7

+E E E E E E E E Q E E Q Q Q Q E E Q

| | | | | | | | | | | | | | | | | |

/ / x / / / / / / / / / / / / / / /

W W W

|------------------|--------------|----------------|

|------------------|--------------|----------------|

|------------------|--------------|----------------|

|------------------|--------------|----------------|

|------------------|--------------|----------------|

|------------------|--------------|----------------|

D DsuD7 G6 G

Q E E +E Q E +E E E E E E E E Q E E +E E Q

| | | | | | | | | | | | | | | | | | | |

/ / / / / / / / / / / / / / / / / / / /

W W W

|-----------------|------------------|----------------|

|-----------------|------------------|----------------|

|-----------------|------------------|----------------|

|-----------------|------------------|----------------|

|-----------------|------------------|----------------|

|-----------------|------------------|----------------|

A7 D5 A/C# G/B

Q E E E E Q H H H +E E E E

| | | | | | | | | | | | |

/ / / / / / / / / / / / /

W W W

|---------------|------------|-----------------|

|---------------|------------|-----------------|

|---------------|------------|-----------------|

|---------------|------------|-----------------|

|---------------|------------|-----------------|

|---------------|------------|-----------------|

To Coda

A7 A7sus4 A7 D G5G/B

Q E E +E Q E E E E E +E E Q E E E E +E E E E +E E E E E +E Q

| | | | |

Get this song at:  amazon.com sheetmusicplus.com

Share your thoughts

0 Comments found