Jimmy Buffett

Jimmy Buffett - I Will Play For Gumbo solo guitar tab

I WILL PLAY FOR GUMBO

Jimmy Buffett

Solo

(C)

E---------------------------------------------------------------------

B--------------------8-----10/13---11/8-----6---6--7--8----4/3--------

G--/9----9----9/8h9-----9----------------9----7---------5------5------

D-----------------------------------------------------------------5---

A---------------------------------------------------------------------

E---------------------------------------------------------------------

(G) (F)

E-----------------------------------------------20--------------------

B-----------------------------8--10--/17--/20--------20--20p17---x----

G---3----4--5~~~---5--8---9-------------------------------------------

D-----5---------------------------------------------------------------

A---------------------------------------------------------------------

E---------------------------------------------------------------------

Get this song at:  amazon.com sheetmusicplus.com

Share your thoughts

0 Comments found