Jimmy Buffett

Jimmy Buffett - Honey Do bass tab

HONEYDO (Bassline)

Jimmy Buffett

Gtr I (E A D G) - 'Untitled'

Q=80

4/4

Gtr I

W W W W

|----------|----------|----------|------|

|----------|----------|----------|------|

|----------|----------|----------|------|

|----------|----------|----------|------|

W W W W

|----------|----------|----------|------|

|----------|----------|----------|------|

|----------|----------|----------|------|

|----------|----------|----------|------|

W W W W

|----------|----------|----------|------|

|----------|----------|----------|------|

|----------|----------|----------|------|

|----------|----------|----------|------|

Q=125

W E E E E S S E E E +S S E E E S S E E E Q E E E E +S S E

|----------|-----------------3-|-(3)-------3-----3---2-|------2---2-(2)-----|

|----------|---5---5-4---5-----|---------------5-------|------------------0-|

|----------|-------------------|-----------------------|--------------------|

|----------|-------------------|-----------------------|--------------------|

+S S E +S S E +S S E E E E E E E S S E E E +S S E E E S S E E E

|-----------------------------|-----------------3-|-(3)-------3-----3---2--|

|-(0)---0-(0)---2-(2)---4---5-|---5---5-4---5-----|---------------5--------|

|-----------------------------|-------------------|------------------------|

|-----------------------------|-------------------|------------------------|

Q E E E E +S S E +S S E +S S E +S S E E E Q E E S S E E E

|------2---2-(2)-----|-----------------------------|----------------3-|

|------------------0-|-(0)---0-(0)---2-(2)---4---5-|------5---4-5-----|

|--------------------|-----------------------------|------------------|

|--------------------|-----------------------------|------------------|

Q E E S S E E E Q E E E E E E +S S S S S S E +S S E +S S E

|------3-----3---2-|------2---2-----|----------------------------------|

|----------5-------|--------------0-|-(0)---0---0---2-(2)---4-(4)---5--|

|------------------|----------------|----------------------------------|

|------------------|----------------|----------------------------------|

Q E E S S E E E Q E E S S E E E Q E E E E +S S E

|----------------3-|------3-----3---2-|------2---2-(2)-----|

|------5-4---5-----|----------5-------|------------------0-|

|------------------|------------------|--------------------|

|------------------|------------------|--------------------|

+S S E +S S E +S S E +S S E Q E E E E E E Q S S E S S E E E

|---------------------------------|--------------3-|--------3-----3---2--|

|-(0)---0-(0)---2-(2)---4-(4)---5-|------5-4-5-----|------5-----5--------|

|---------------------------------|----------------|---------------------|

|---------------------------------|----------------|---------------------|

Q E E E E +S S E +S S E +S S E +S S E +S S E

|------2---2-(2)-----|---------------------------------|

|------------------0-|-(0)---0-(0)---2-(2)---4-(4)---5-|

|--------------------|---------------------------------|

|--------------------|---------------------------------|

Q E E +S S E +S S E

|------------------------|

|------5-(5)---6-(6)---7-|

|------------------------|

|------------------------|

+S S E +S S E S S E +S S E +S S E E E +S S S S E E

|--------------------------------|---------------------------------|

|-(7)---7-(7)--------------------|---------------------------------|

|---------------5---7-9-(9)---10-|-(10)---10---11-(11)---11-----12-|

|--------------------------------|---------------------------------|

+S S S S E E +S S S S E E

|-------------------------------------|

|-------------------------------------|

|-(12)---12----------------------10---|

|---------------10-(10)---10----------|

+E E E E E E E E Q S S E S S E E E Q E E +E E S S E

|----------------------|----------------------|--------------------|

|--------------------8-|---------8------8---7-|------7-(7)---7-----|

|-(10)-----10-9-10-----|----10-------10-------|------------------5-|

|----------------------|----------------------|--------------------|

+S S E +S S E +S S E +S S E Q E E S S E E E Q E E S S E E E

|----------------------------------|--------------------|--------------------|

|----------------------------------|------------------8-|------8------8---7--|

|-(5)---5-(5)---7-(7)---9-(9)---10-|------10-9---10-----|----------10--------|

|----------------------------------|--------------------|--------------------|

Q E E E E E E +S S E +S S E +S S E +S S E Q E E S S E E E

|----------------|----------------------------------|--------------------|

|------7---7-----|----------------------------------|------------------8-|

|--------------5-|-(5)---5-(5)---7-(7)---9-(9)---10-|------10---9-10-----|

|----------------|----------------------------------|--------------------|

Q E E S S E E E Q E E +S S E S S E +S S E +S S E +S S E E E

|-------------------|----------------------|------------------------------|

|------8------8---7-|------7-(7)-------7---|---------------------------7--|

|----------10-------|--------------------5-|-(5)---5-(5)---7-(7)---9------|

|-------------------|----------------------|------------------------------|

Q E E Q S S E +S S E +S S E +S S E E E +Q Q Q E E

|-----------------|------------------------------|------------------|

|------7----7-----|------------------------------|------------------|

|---------------5-|-(5)---5-(5)---7-(7)---9---10-|-(10)----------10-|

|-----------------|------------------------------|------------------|

E E +S S E +S S E E E

|-------------------------------|

|-------------------------------|

|---10-(10)---12-(12)---13---14-|

|-------------------------------|

Q S S E Q S S S S Q S S E Q S S E

|--------------------------|-----------------------|

|--------------------------|-----------------------|

|----14---------14-12-14---|----14-----------------|

|---------14---------------|---------14----13---12-|

Q S S E Q S S E

|-----------------------|

|-----------------------|

|---------14----14------|

|----12--------------12-|

+S S E +S S E +S S E +S S E Q S S E Q S S E

|-----------------------------------------|------------------2--|

|-----------------------------------------|---------2----2------|

|-----------------------------------------|---------------------|

|-(12)---14-(14)---15-(15)---16-(16)---17-|----17---------------|

Q S S E E E E E W H Q E E Q E S S Q S S E

|----2-------------|----------|-----------0-|------0--------0-3--|

|--------2---1---0-|----------|-------------|--------------------|

|------------------|----------|-------------|--------------------|

|------------------|----------|-------------|--------------------|

Q E E Q S S E Q E E Q S S E E E +S S E +S S E +S S E

|------3------3-2-|------2----2-----|-----------------------------|

|-----------------|---------------0-|---0-(0)---2-(2)---4-(4)---5-|

|-----------------|-----------------|-----------------------------|

|-----------------|-----------------|-----------------------------|

Q E E S S E E E Q S S E S S E E E Q E E Q S S E E E E E E E E E

|----------------3-|--------3-----3---2-|------2----2-----|-----------------|

|------5---4-5-----|------5-----5-------|---------------0-|---0---2---4---5-|

|------------------|--------------------|-----------------|-----------------|

|------------------|--------------------|-----------------|-----------------|

Q E E Q S S E Q E E E E E E

|---------------3-|------3---3---2-|

|------5----5-----|----------------|

|-----------------|----------------|

|-----------

Get this song at:  amazon.com sheetmusicplus.com

Share your thoughts

0 Comments found