Jimmy Buffett

Jimmy Buffett - Havana Daydreamin' solo guitar tab

HAVANA DAYDREAMIN'

Jimmy Buffett

Solo

E-----------------------------------------------------------------------

B---17--17-17---17------17-----------------------------------------b16r-

G---17--16-16---14------14---14--14--------------------------14---------

D-------------------16-------16--14---------11--------14--16------------

A----------------------------------------12----12/16--------------------

E-----------------------------------------------------------------------

E-----------------------------------------------------------------------------------------

B----16--14---16----17--17-17-17-----17---------------------------------------------------

G-------------------16--16-16-16-----14----14--14-----------------------14----------------

D---------------------------------16-------16--14-------11-------14--16------16---14-14---

A---------------------------------------------------/12----12/16--------------------------

E-----------------------------------------------------------------------------------------

Get this song at:  amazon.com sheetmusicplus.com

Share your thoughts

0 Comments found