Jimmy Buffett

Jimmy Buffett - Grapefruit Juicey-fuit (w\ Correct ) guitar tab

Here's the correct intro to Grapefruit, Juicey-Fruit. The whole intro is

fingerpicked. This is always a fun one to play, hope you enjoy it.

Tablature Explanation:

h- hammer on x- mute

Chords used in the interlude:

Dm7: G7: Cmaj7: D7: G:

e--8-- e--3-- e--3-- e--5-- e--3--

B--6-- B--6-- B--5-- B--7-- B--3--

G--5-- G--4-- G--4-- G--5-- G--4--

D--7-- D--3-- D--5-- D--7-- D--5--

A--5-- A--5-- A--3-- A--5-- A--5--

E--X-- E--3-- E--X-- E----- E--3--

Intro/verse:

e---------------------------------------------------------

B--4-5--------5-----6---5--4--5---4-5--------5-----6---5--

G---------------------------------------------------------

D--4-5--5---5---5-----------------4-5--5---5---5----------

A--2-3----3-------3---3----3--3---2-3----3-------3---3----

E---------------------------------------------------------

e---------------------------------------------------------

B--4-5------0----0h1-0-------------1---1------------------

G--------3--0----------------------0---0------------------

D--------4-------0h2-0-------------2---2------------------

A--3-3---------------------0--2--3-------3---0--2--3------

E--------2--3----3---3---3-----------3------3-------------

The intro is played the same throughout all the verses except for the

interlude.

Interlude:

Dm7 G7 Cmaj7

You know it gets so damn lonely,

Dm7 G7 Cmaj7

When you're on a plane alone.

(Cmaj7) Dm7 G7

Yes n' if I had the money honey

(G7) Cmaj7

I'd strap you in beside me

D7

And never ever leave you

G

Leave you at home all alone and cryin.

Then it goes back to the intro/verse simile.

Get this song at:  amazon.com sheetmusicplus.com

Share your thoughts

0 Comments found