Jimmy Buffett

Jimmy Buffett - God's Own Drunk guitar tab

Gods Own Drunk

By Lord Richard Buckley

Performed by Jimmy Buffett

The "singing" riff is finger picking

going back and forth between E7 and A7,

much like Riff A. Pretty much an ad lib.

Improvisation is encoraged.

There are lines such as “I took a slash” where the

A7 is built up and then one E7 is slammed and then

muted. There is a long pause and the E7-A7

ad lib resumes.

The outro is a variation of the last 4 measures

of the intro with emphasis on the C7-B7 descent

and the E chord is strummed replacing the lead

in the intro

Intro

Riff A

E-0------0------0-----0-----0------0---00-----

B-0------3------3-----2-----2------2---00-----

G-1------1------1-x--0-----0------0---01------

D-0----------0-----x--2--2-----2-------00-stop

A-2-2-------2-----x--0--0-----0-------02------

E-0-0---------------------------------------00

E------0-3-b-up-33333333333-down--------------

B-0-3-----------------------------------------

G---------------------------------------------

D---------------------------------------------

A---------------------------------------------

E---------------------------------------------

E-3-0--------0--------

B-------0-3-----0-----

G-------------------0- Riff A

D---------------------

A---------------------

E---------------------

E---0-0--------0---------0--------0----------

Bx-0----0--------0---------0--------0--------

Gx-1-------1---------1--------1---------1----

Dx-0-----------------------------------------

Ax-2-----------------------------------------

Ex-0-----------------------------------------

E--------------------------------------------

B--------------------------------------------

G--------------------------------------------

D-------------0-2-0-------0------------------

A-------0-2------------3------0--------------

E-0-3----------------------------------------

E----3------2---2----------------------------

B----x---x-0----0---x------------------------

G-3-3--x--2----2----x------------------------

D-2-2--x--1-1----1-x-------------------------

A-3-----x--2-2----2-x------------------------

E--------------------------------------------

E----3--------2------------------------------

B----x--------0----0-------------------------

G-3-3-2--2-2-2—1-----------------------------

D-2-2-2--1-1-1--2----------------------------

A-3-3-3--2-2-2--2----------------------------

E--------------------0-----------------------

E--------------------------------------------

B------3--2-1----0---------------------------

G-2/4-----3-2-0-1----------------------------

D------------------2-----------1-------------

A------------------2--0-1-2----2-------------

E-------------------0---------------0--------

Well,

like I've explained in this town many times before

I ain't a drinkin' man.

I quit in Miami on Sunday.

As my knees were shakin' and my teeth were chatterin',

I swore I would never do it again.

But I had promised my brother-in-law that

I'd watch his still while he went into town to vote.

An' it was right up on the mountain where the map said it would be.

Friends let me tell you one thing it wadn't no ordinary still.

Stood up there on that mountain like a huuuuuuuge golden opal,

God's little lanterns 's twinklin' on and off in the heavens

God's big ol' yella moon was shinin' on the cool clear evenin',

Like I've explained many times before, I ain't a drinkin' man,

But, on that particular occasion, the temptation got the best of me, and

This feelin' comes over me and I-I-I-I-I-I-I-I-I-I-I- took a slaaaash...

Shew!

That yella whiskey runnin' down my throat tast like honeydew vine water,

and I took another slash.

Took another and another and another, an' 'fore I knew it

I'd downed one whole jug o' that shit and commenced to get hot flashes.

Goosepimples 's runnin' up and down my body

All the sudden this, this feelin' comes over me

do-do-do-do-do

's like, somethin' I'd never experienced before,

's like,

's like I was in love,

In love for the nine hundred and 35th time

With anything that moooooved...

Animate, in-animate, conehead, no cone it didn't matter.

's like there's this, this great neon sign flashin' on and off in my brain sayin',

"Jimmy Buffett...

you fool.

There's a great day a comin'..."

'Cause I was DRUNK!

I wadn't knee-crawlin',

Coral Reeferin' (yeah I've seen that)

Commode-huggin' drunk.

No, I was God's own drunk, and a fearless man.

And That's

When I first-saw-the-bear.

He was a Kodiak lookin' fella 'bout 19 feet tall

He rambled up over the hill

'spectin' me to do one of two things:

flip or fly, I didn't do either one.

Hung him up.

Started sniffin' 'round my body tryin' to smell a little fear,

But he ain't gonna smell it, 'cause I'm God's own drunk and a fearless man.

Hung him up.

I had him on the run, I thought to myself.

Until he ate my sunglasses to show me he was a badass.

And I had just stolen them from Eckerd's and I was really pissed off!

Had a eight dollar price tag on the son of a bitches, you know?

So when he pulled 'em off my eyes was a lot redder than his was.

It hung him up.

So I said uh, "Mr. Bear...

Sir.

's 'at resPECTful way you say sir, you know.

It's like

when you drivin' down the highway and ya got,

feelin' pretty confident because you got a fuzz buster in you're car

and you got nineteen smushed out joints an empty vial on the front seat

and twenty seven cases of Budweiser in the back seat

and the cops stop ya, ya know.

Yes sir!

I wadn't doin' shit!

Then he leans on ya, you know.

So ya gotta be nice and ya go

"Please don't take me in 'cause my old lady'll kick my ass.

I's only supposed to go down to Buckhead to get the paper,

next thing I knew I was on I-75 headed for Florida!

Oh I'm in trouble now.

Got any tickets to the baaaaaall?"

Sir. I love every hair on your 27 acre body.

I know you got a lotta friends over there on the other side of Stone Mountain.

There's ole'

RareBear TallBear FreddyBear KellyJair RellyBear Smellyth'Bear Smokeyth'Bear Pokeyth'Bear;

I want you to go back over there tonight and you tell 'em I'm feelin' right.

Tell 'em I love each and every one of 'em like a brother and a sisterrrrr;

But!

If they give me any trouble tonight,

As much as I hate to do it,

I'm gonna have to run every Goddamned one of 'em

Right off the hill."

That's what I told him.

Well He took two steps back;

He didn't know what to say.

Neither did I,

(scared the shit out of me)

But I was God's own drunk and a fearless man,

I said uh,

"Mr. Bear, you know in the eyes of the Loorrrd,

We're both beasts when it comes right down to it.

So I want you to be my buddy,

'Buddy Bear.'"

He's gonna be on Hollywood Squares next week.

So I took ole' Buddy Bear by his island sized paw and I led him to the still.

He's a' sniffin' around that thing 'cause he's smellin' somethin' good.

I 'on't blame 'im.

So I gave him one of them jugs of honeydew vine water, he downed it upright,

(looked like one of them bears in the circus sippin' sasparilly in the moonlight.)

I gave him another and another and another

Before 'e knew it, he'd downed about eight of 'em and commenced to do the "bear dance."

First of all you gotta slide into second brase, break y'r leg,

Two sniffs, a snort, a fly, a turn and a grunt;

It was so simple like the boogaloo,

Plumb evaded me.

And we worked ourselves into a tumultuous uproar

I's awful tired,

went over to the hillside, laid down,

Slept for four hours, and dreamt me some tremulous dreams

(I think Cheryl Tiegs was in one of 'em, I 'on't know)

Oh-ho, yeah. Oh-ho... Big ol' American breasts, you know? Hoho!

An' wh'

When I woke up, (I didn't wanna wake up. I's out there uh, "Gone to the Bahamas!")

But when I woke up, there was God's yella moon shinin' on the cool clear evenin',

God's little lant

Get this song at:  amazon.com sheetmusicplus.com

Share your thoughts

0 Comments found