Jimmy Buffett

Jimmy Buffett - Fins intro guitar tab

FINS

Jimmy Buffett

(Buffett, McColl, Chance, Corcoran)

From the CD: Meet Me In Margaritaville

Intro

Play this twice

E----------------------0--------------------0-------------------0------------------

B----------------------0--------------------0-------------------0------------------

G---1~---1---2-3-4----------4~---4--3-2-1-------1~---1--2-3-4-------4~--4--3-2-1---

D----------------------------------------------------------------------------------

A----------------------------------------------------------------------------------

E----------------------------------------------------------------------------------

E---3p2--0--2--0--------------------

B-----------------------------------

G-----------------4p2-----2--1------

D----------------------5------------

A-----------------------------------

E-----------------------------------

Get this song at:  amazon.com sheetmusicplus.com

Share your thoughts

0 Comments found