Jimmy Buffett

Jimmy Buffett - Brown Eyed Girl For 2 Guitars bass tab

Brown Eyed Girl (Bassline)

By Van Morrison

Bass (E A D G)

Intro

Moderate Rock Q=140

4/4

Gtr I

H E E Q q Q E E Q q E E E E E E

|-------------|--------------|----------------|

|-------------|--------------|--------2-2-4-4-|

|-------------|-----------2--|-3----3---------|

|--------0-2--|-3-------3----|----------------|

Q Q E E E E Q. E +E Q E

|-----------------|------------------|

|-5---------------|------------------|

|---------2-4-(4)-|-5----------------|

|-----------------|------0-(0)-1--2--|

q Q E E E E Q E E Q Q Q Q E E E E Q E E +E Q E

|-----------------|--------------|-----------------|-----------------|

|-----------------|--------2--4--|-5---------------|-----------------|

|-----------2-(2)-|-3----3-------|---------2-4-(4)-|-5---------------|

|-3-------3-------|--------------|-----------------|------0-(0)-1--2-|

1st Verse

H E E E E Q E E Q Q Q. E E E E E Q. E +E Q E

|--------------|--------------|----------------|-----------------|

|--------------|-----------4--|-5--------------|-----------------|

|----------2-2-|-3----3-2-----|----------2-4-4-|-5---------------|

|-3------3-----|--------------|----------------|------0-(0)-1--2-|

H E E Q Q E E Q Q H E E E E Q. E +E Q E

|-------------|--------------|--------------|-----------------|

|-------------|--------2--4--|-5------------|-----------------|

|--------0-2--|-3----3-------|--------2-4-4-|-5---------------|

|-3-----------|--------------|--------------|------0-(0)-1--2-|

q Q E E Q Q. E Q E E Q. E E E E E Q. E +E Q E

|--------------|---------------|----------------|-----------------|

|--------------|--------2--4-4-|-5--------------|-----------------|

|-----------2--|-3----3--------|----------2-4-4-|-5---------------|

|-3-------3----|---------------|----------------|------0-(0)-1--2-|

H E E E E Q. E E E E E Q. E E E E E Q E E E E Q

|--------------|----------------|----------------|---------------|

|--------------|--------2-2-4-4-|-5--------------|---------------|

|----------2-2-|-3----3---------|----------2-4-4-|-5----5---0-2--|

|-3------3-----|----------------|----------------|---------------|

H +E E E E Q. E E E Q Q. E +E Q E Q. E E E Q

|----------------|---------------|-----------------|---------------|

|----------------|------------4--|-5---------------|-2----2-2------|

|-3----(3)-0-3-4-|-5----5---x----|------------2--5-|----------0-2--|

|----------------|---------------|------3-(3)------|---------------|

Q. E +E E Q Q. E +E E E E Q. E +E Q E E E E E E E Q

|-----------------|---------------------|-----------------|----------------|

|-----------------|---------------5-----|-----------------|---------3---4--|

|-3----3-(3)-0-4--|-5----5-(5)-/7---(7)-|------2-(2)-3--0-|-5---5-5---5----|

|-----------------|---------------------|-3---------------|----------------|

2nd and 3rd Verse

$

H E E Q Q. E Q Q H +E E Q Q. E +E Q E

|-------------|--------------|---------------|-----------------|

|-5-----------|--------2--4--|-5----(5)------|-----------------|

|----------2--|-3----3-------|----------2-4--|-5---------------|

|--------3----|--------------|---------------|------0-(0)-1--2-|

H +E E Q Q. E E E E E H +E E Q Q. E +E Q E

|---------------|----------------|---------------|-----------------|

|---------------|------2---3---4-|-5----(5)------|-----------------|

|------------2--|-3--------------|----------2-4--|-5---------------|

|-3----(3)-3----|----------------|---------------|------0-(0)-1--2-|

H +E E Q Q. E Q Q H +E E Q Q. E +E Q E

|---------------|--------------|---------------|-----------------|

|---------------|--------2--4--|-5----(5)------|-----------------|

|------------2--|-3----3-------|----------2-4--|-5---------------|

|-3----(3)-3----|--------------|---------------|------0-(0)-1--2-|

H E E Q Q. E Q Q H E E Q Q E E E E Q

|-------------|--------------|-------------|---------------|

|-------------|--------2--4--|-5-----------|---------------|

|----------2--|-3----3-------|--------2-4--|-5----5---0-2--|

|-3------3----|--------------|-------------|---------------|

Q E E E E E E Q. E Q. E Q. E +E Q E Q. E E E Q

|----------------|---------------|-----------------|---------------|

|----------------|---------------|---------------5-|-2------2------|

|-3----3---0-3-4-|-5----5-5------|------2-(2)-5----|------2---0-2--|

|----------------|-------------0-|-3---------------|---------------|

Q. E +E E Q Q. E +E Q E Q. E +E E E E Q. E H

|-----------------|-----------------|------------------|-------------|

|------2-(2)------|-----------------|------------------|-------------|

|-3----------0-4--|-5---------------|------2-(2)-3-3-4-|-5----5-5----|

|-----------------|------2-(2)-5--2-|-3----------------|-------------|

To Coda

E E Q E E Q E E E E +Q +S S S S

|---------------|-7-----7-(7)--(7)-7------||

|---7--------7--|---7---------------------||

|-5--------5----|-----5-------------------||

|---------------|--------------------0-2s=||

Chorus

Q. E +E E E E E Q E +E E E E Q E E +E E Q Q E E E E E E

|------------------|--------------------|------------------|----------------|

|------------------|--------------------|------------------|----2-2-3-3-4-4-|

|--------------0-2-|-3------------------|------2-(2)--3-4--|-5--------------|

|-3----3-(3)-3-----|---0--1-(1)-2---(2)-|-3--3-------------|----------------|

Q. E +E Q E E Q E E E Q Q. E E E E E E Q E E E E E

|-----------------|--------------|----------------|-----------------|

|-5----5-(5)------|--------2---4-|-5--------------|-----------------|

|------------2--5-|-3-3--3---3---|------2---3---4-|-5-5--5-5-5---5--|

|-----------------|--------------|----------------|-----------------|

Q. E Q. E Q. E Q. E Q. E Q. E Q. E E E Q

|---------------|---------------|---------------|----------------|

|-5----5-5----5-|-5----5-5----5-|-5----5-5----5-|-5----5-5-------|

|---------------|---------------|---------------|----------7-5\--|

|---------------|---------------|---------------|----------------|

D.S. al Coda

H +E E Q Q. E Q Q H E E Q Q. E E E E E

|---------------|--------------|-------------|----------------|

|---------------|--------2--4--|-5-----------|------------5---|

|------------2--|-3----3-------|----------2--|-5----3-5s7---7-|

|-3----(3)-3----|--------------|--------3----|----------------|

Chorus

&

Q. E +E E Q E Q E +E Q E Q Q +E Q E E Q E +E Q E 4x

||------------------|-----------------|----------------|-----------------||

||o-----------------|------2-(2)-3--4-|-5--------------|----------------o||

||o--------------2--|-3-3-------------|----2--(2)-3--4-|-5----------0---o||

||--3----3-(3)-3----|-----------------|----------------|---0--2-(2)---2--||

Get this song at:  amazon.com sheetmusicplus.com

Share your thoughts

0 Comments found