Jimi Hendrix

Jimi Hendrix - Pass It On-live At Berkley guitar tab

Pass it On(Straight Ahead)

Jimi Hendrix

Live at Berkley

This has always been my favorite Hendrix song, but i could never find any tabs for it.

It isnt on any of hi records, it was a warm up track for his "Live at Berkley" show. I recommend

downloading this song, i think it has the best guitar hendrix has written. Thanks, and

correction or comments go to ghostradiorock@hotmail.com

^-slide up

h-hammer

p-pull

E|----------------------------------------------------------------------------------------|

B|---------------8------------------8------------------8------------------8---------------|

G|---------------7------------------7------4-----------7------------------7------4--------|

D|-7^9-5-7-----------------------------------5-7-----------------------------------5-7p5--|

A|---------7------------5h7-5-7---------5h7------7------------5h7-5-7---------5h7-------7-|

E|-----------0-0-----5h7--------0-0----------------0-0-----5h7--------0-0-----------------|

E|------------------|

B|---------4--------|

G|-----------5-7p5--|

D|-7-77-77--------7-|

A|------------------|

E|------------------|i still havent gotten the rest, but i'm working on it

If you have any additions to this song, send them to ghostradiorock@hotmail.com

Get this song at:  amazon.com sheetmusicplus.com

Share your thoughts

0 Comments found