Jewel

Jewel - Enter From The East guitar tab

ENTER FROM THE EAST

"PLAY THE VERSE LIKE THIS"

G Em

E|-------0---0|-------0---0|-------0----|-------0----|

B|------------|------------|-----------0|-----------0|

G|---2-----2--|---0-----0--|---0-----0--|---0-----0--|

D|------------|------------|------------|------------|

A|------------|------------|------------|------------|

E|-3---3------|-3---3------|-0---0------|-0---0------|

G

I WENT OUT A-WANDERING BENEATH AN UNKNOWN SKY

Em

THE HEAVENS ALL SHOOK VIOLENTLY HE CAUGHT MY EYE

G

STRANGE FRUIT FELL IT STRUCK ME TO THE CORE

Em

MY HEART BECAME A SINGLE FLAME IT WASTED NOTHING MORE

"PLAY THE CHORUS LIKE THIS"

C G

E|-------0----|-------0----|

B|-----------1|-----------3|

G|---0-----0--|---2-----2--|

D|------------|------------|

A|-3---3------|------------|

E|------------|-3---3------|

CHORUS

C G

STRANGER, ENTER FROM THE EAST

C G

STRANGER, STEP INSIDE THIS PLACE

Em G

OH, AND OWN ME, OWN ME

G

THE CLOCK BECAME A BULLET HOLE CRUEL AND UNKIND

Em

IT HURT ME WITH IT´S SECOND HAND ALONE ANOTHER NIGHT

CHORUS

C G

STRANGER, ENTER FROM THE EAST

C G

STRANGER, STEP INSIDE THIS PLACE

"PLAY THE BRIDGE LIKE THIS"

BRIDGE

D C G

E|-------2----|--------0----|-------0----|--------------------

B|-----------2|------------1|-----------3|--------------------

G|---2-----3--|---0------0--|---2-----2--|--------------------

D|-0---0------|-------------|------------|--------------------

A|------------|-3---3-------|------------|--------------------

E|------------|-------------|-3---3------|--------------------

D C G

BLUE IS THAT YOU WELL, DON´T BOTHER KNOCKING ON MY DOOR THIS TIME

D C G

BLUE GO BE TRUE FOR SOMEONE ELSE THERE´S NO ROOM INSIDE THIS HEART OF MINE

Am G

MY HEART HAS FOUR EMPTY ROOMS

Am G Em

THREE WAIT FOR LIGHTNING AND ONE WAITS FOR YOU

G

I MUST HAVE YOU ALL TO MYSELF FEEL THE FULL WEIGHT OF YOUR SKIN

Em

I´LL HOLLOW OUT MY INSIDES TO PLACE YOU IN

CHORUS

C G

STRANGER, ENTER FROM THE EAST

C G

STRANGER, STEP INSIDE THIS PLACE

Em G

OH, AND OWN ME, OWN ME

Get this song at:  amazon.com sheetmusicplus.com

Share your thoughts

0 Comments found