Jet

Jet - R U Going To Be My Girl bass tab

Intro

G|--------------------------------------------------------------------|

D|--------------------------------------------------------------------|

A|----------------3-------------------------------3---3-5--5-3--------|

E|--5-5-5--5-5-035--5-5-5--5-5-0303-5-5-5--5-5-035--5---------5-5-3---|

G|--------------------------------------------------------------------|

D|--------------------------------------------------------------------|

A|----------------3---------------------------------------------------|

E|--5-5-5--5-5-035--5-5-5--5-5-0303-5-5-5--5-5-0303-5-----------------|

Verse

G|------------------- r ------------------------------|

D|------------------- e ------------------------------|

A|------------------- s --------------------------3---|

E|--5---------------- t ------------5-5-5--5-5-035----|

G|--------- r ------------------------|

D|--------- e ------------------------|

A|--------- s --------------------3---|

E|--5------ t ------5-5-5--5-5-035----|

G|---------------- r -------------------------------------------------|

D|---------------- e -------------------------------------------------|

A|---------------- s -----------------------------3---3-5--5-3--------|

E|--5------------- t --------30-3-4-5-5-5--5-5-035--5---------5-5-3---|

G|--------------------|

D|--------------------|

A|--5--5--5---3-------|

E|--------------3-----| X4

Chorus

G|---------------------------------------------------------------------|

D|--------------------------------22----------5---------/7-57-5--5-7---|

A|----------------223-3-3--3-32233--5-5-5--5/7-7-5-------------7-------|

E|--5-5-5--5-55555---------------------------------7-5-5---------------| X2

G|------------------------------------|

D|----------------3-3-----------------|

A|--5--5--5---5555--------------------|

E|------------------------------------|

Bridge

G|---------|

D|-----5---|

A|--57-----|

E|---------|

G|--------------------------------------------------------------------|

D|--------------------------------------------------------------------|

A|------------------3-3-3--3-33333335-5-5--5-5555555------------------|

E|--5-5-5--5-5555555--------------------------------5-5-5--5-5003344--|

G|--------------------------------------------------------------------|

D|-----------------------------------------------------/7-57-5--5-7---|

A|------------------3-3-3--3-33333335-5-5--5-5555555----------7-------|

E|--5-5-5--5-5555555--------------------------------5-5---------------|

Get this song at:  amazon.com sheetmusicplus.com

Share your thoughts

0 Comments found