Jason Mraz

Jason Mraz - Tonight Not Againt guitar tab

Jason Mraz

Tonight, Not Again

Drop C and Capo 2nd OR 3rd*

tabbed from 2nd

by: adam pfister (pfister.adam@students.uwlax.edu)

Intro/Verse:

e--------------------------------

B--------------------------------

G--------------------------------

D------4-4-----------5-5---------

A----2-------------3-------------

E--4-------4-4/5-5--------5/4----

- the verse is sort of palm muted and strummed in the above pattern.

listen to the song to get the rhythm down.

Chorus:

e--------------

B--------------

G-(0)-(0)--7---

D--7---5---5---

A--5---3---7---

E--7---5---0---

*In the video from the Gorge, Jason has a Capo at the 2nd fret. At the Quest

Club in MN (1-16-03), Jason had a Capo at the 3rd fret. Play as you like and

make the necessary adjustments to the tab for playing at the 3rd fret.

Get this song at:  amazon.com sheetmusicplus.com

Share your thoughts

0 Comments found