Jason Mraz

Jason Mraz - Hey Love guitar tab

Hey Love:

e------------------------------------------------

b----4---------4----------7----------7-----------

g-------6---------6-------8--8----------8--------

d----6--6------6--6----------8-------8--8--------

a-4---------4-------------------------------------

E----------------------7---------7----------------

e-------------------------------------------------

b-------------------------------------------------

g----4--3------4--3--------6---6-------5--5------

d----4--4------4--4--------6---6-------6--6------

a-2---------2-------------------------------------

E-----------------------4-----------4-------------

Get this song at:  amazon.com sheetmusicplus.com

Share your thoughts

0 Comments found