Jason Mraz

Jason Mraz - Common Pleasure (live) guitar tab

Jason Mraz

Common Pleasure (live 6-27-02 & SDMA's)

Standard Tuning

by: adam pfister (pfister.adam@students.uwlax.edu)

Intro

e--------------------

B--------------------

G--------------------

D--------------------

A--------------------

E--5-----8-----0-----

eventually..

e--------------------

B--------------------

G---------------1----

D--7-----12-----2----

A--7-----12-----2----

E--5-----10-----0----

optional before starting (SDMA's)

e--10-----

B--10-----

G--10-----

D--10-----

A---x-----

E--10-----

Verse

e-------------------------------------------------------------------------

B------------------------------------------------------------(5)(4)(3)----

G--10-10--10--9---------------8-7---------------10-10--10--9--5--4--3-----

D--10-10--10-10---------------8-8---------------10-10--10-10--5--4--3-----

A---x--x---x--x---------------x-x----------------x--x---x--x--x--x--x-----

E--10-10--10-10--5-6-6/8-8-8--8-8--3-51-1/10---10-10--10-10--5--4--3-----

Bridge part

e----------------

B-(5)-(4)-(3)----

G--5---4---3-----

D--5---4---3-----

A--x---x---x-----

E--5---4---3-----

end on

e-------10-----

B-------10-----

G-------10-----

D-------10-----

A--------x-----

E-10-10-10-----

Get this song at:  amazon.com

Share your thoughts

0 Comments found