Jason Mraz

Jason Mraz - Childlike Wildlife guitar tab

Childlike Wildlife:

e--------------------------

b--------------------------

g-9---4---2-2-1-2---------

d-9---4---2-2-2-2---------

a-7---2---0-0-0-0---------

E--------------------------

and then the break down is the same chords

just fingerpicked and a lot slower.

g-11---9---7----

d-11---9---7----

a--9---7---5----

Get this song at:  amazon.com

Share your thoughts

0 Comments found