Jason Mraz

Who Needs Shelter (Live) Tabs



More from Jason Mraz

Jason Mraz Tabs
Jason Mraz Chords
Jason Mraz Lyrics

Jason Mraz
Who Needs Shelter? (live 6-27-02)
Capo 2nd
by: adam pfister (pfister.adam@students.uwlax.edu)

Intro/Verse:
e----2---0------------0--------------------------------
B----3---3----3---0h3---0----1----1--------------------
G----2---2-------------------2----0---0h2-2p0-----0----
D--4---4----4---4-----------------------------0h2------
A-------------------------3----3---3-------------------
E------------------------------------------------------

Chorus:
e--0---0-------
B--0---0-------
G--2---1-------
D--0---2-------
A--2---2-------
E------0-------

*any help on the chorus would be great
Get this song at amazon.com      Ebay     Ringtones Ringtones  


Learn to play: Songwriting, Piano, Harmonica, Guitar
More Jason Mraz lyrics available at Muzikum

Related Jason Mraz Tabs

Dream Life Of Randy Mcnally (Live) tabs
Sleeping To Dream tabs
I Won\'t Give Up tabs
Childlike Wildlife tabs
Remedy Bass tabs
Halfway Home tabs
The Remedy (Acoustic) tabs
Sleep All Day tabs
Common Pleasure (live) tabs
Little You And I (Live) tabs
Love Is Real tabs
What We Want tabs
Absolutely Zero tabs
Wordplay tabs
Bella Luna Intro tabs
Bright Eyes tabs
Plane tabs
Please Dont Tell Her tabs
Better tabs
Bella Luna tabs


Guitar Tabs









All tabs are property and copyright of their owners. All tabs provided for educational purposes only. Privacy Policy, DMCA