James Taylor

James Taylor - 4th Of July guitar tab

As I was learning my own tab I found several unforgivable errors.

Here's the corrected version:

4th of July

James Taylor

Transcribed by John Palermo dupecoop@mac.com

(Capo 2)

E||-----------------------0--|-----------------------|

B||-----------------3--------|-----2-----------------|

G||-----0-----2--------0-----|-----------2-----------|

D||--------0-----0-----------|-----------------------|

A||--------------------------|--0-----------2--------|

E||--0--------2-----3--------|--------2--------------|

-----------------------0--|---------------------|-----0----------------|

-----------------3--------|-----0---------------|-----3----------3-----|

-----0-----2--------0-----|--------0------------|-----2----------0-----|

--------0-----0-----------|---------------------|--0-------0-----2-----|

--------------------------|---------------------|-------------0-----0--|

--0--------2-----3--------|--0------------------|----------------------|

-----0----------------|-----0----------------|-----------------------|

-----3----------3-----|-----3----------3-----|-----2----------3------|

-----2----------0-----|-----2----------0-----|-----2----------2------|

--0-------0-----2-----|--0-------0-----2-----|----------------2------|

-------------0-----0--|-------------0-----0--|-------------2---------|

----------------------|----------------------|--2-------2------------|

------------------------|------------------------|------------------------|

-----------------2------|------------------------|----------------2-------|

--------2--------2------|-----2----------2----0--|-----2----------2-------|

-----0-----0-----2------|-----0----------2-------|-----0------------------|

--------------2---------|-------------0----------|----------2--2-------2--|

--0---------------------|--0-------0-------------|--3---------------------|

----------------------0--|-----0----------------|-----0----------------|

-----------------3-------|-----3----------3-----|-----3----------3-----|

--------2--------0-------|-----2----------0-----|-----2----------0-----|

-----0-----------2-------|--0-------0-----2-----|--0-------0-----2-----|

--------------0----------|-------------0-----0--|-------------0-----0--|

--0--------0-------------|----------------------|----------------------|

-----0----------------|-----------------------|------------------------|

-----3----------3-----|-----0----------0------|-----------------2------|

-----2----------0-----|-----2----------2------|--------2--------2------|

--0-------0-----2-----|-----2----------1------|-----0-----0-----2------|

-------------0-----0--|-----------------------|--------------2---------|

----------------------|--2-------2--1---------|--0---------------------|

------------------------|------------------------|------------------------|

------------------------|----------------2-------|-----0-------------3----|

-----2----------2----0--|-----2----------2-------|-----2-------------0----|

-----0----------2-------|-----0------------------|-----0----------2-------|

-------------0----------|----------2--2-------2--|-------------0----------|

--0-------0-------------|--3---------------------|--0-------0-------------|

------------------------|----------------------|----------------------|

-----4----------3-------|-----2---------1------|-----1---------2------|

-----4----------3-------|-----2---------1------|-----0---------1------|

------------------------|----------------------|----------------------|

--4---------------------|--2-------------------|--0---------1---------|

----------0--2-------2--|------------0---------|----------------------|

----------------0-------|----------------------|---------------0------|

-----3----------3-------|-----1---------3------|-----3---------0------|

-----2----------2-------|-----0---------3------|-----4----------------|

----------------0-------|----------------------|----------------------|

--2-------2-------------|--0-------------------|------------3---------|

-------------0-------0--|------------4---------|--3-------------------|

----------------------|----------------------|--------------------0-|

-----4---------3------|-----2---------1------|---------------0-------|

-----4---------3------|-----2---------1------|----------2------------|

----------------------|---------------0------|-----2-----------------|

--4-------------------|--2-------------------|--0--------------------|

------------2---------|------------0---------|-----------------------|

--0----------------||

-------------------||

-------------------||

-------------------||

-------------------||

-------------------||

Get this song at:  amazon.com sheetmusicplus.com

Share your thoughts

0 Comments found