Iron

Iron - Maiden - Wasting Love bass tab

Tab explanations

-----------------------------------------------------

> Forcefully | / Slide up

. Staccatto | \ Slide down

h Hammer-on/ pull off | : Repeat

a Harmonic | ~ slight bend

-----------------------------------------------------

Wasting Love ( Dickinson/Gers )

( From the album " Fear of the Dark " )

-----------------------------------------------------------------------------

->---------------------------------------------------------------------------

-7--7--7-7--3--3-3-3--3--5--5-5-5--7-7-7-7--5-5-5-5--7--7--7-7--3--3-3-3--3-3

-0---------------------------------------------------0-----------------------

Intro

-----------------------------------------------------------------------------

-----------9-7-------------------------------------------------9-7-----------

-5--5-5-5------10-9-10-9-7-5-7--7--7-7--3--3-3-3--3--5--5-5-5------10-9-10-9-

-----------------------------------------------------------------------------

------------------------------------------------------|----------------------

------------------------------------------------------|----------------------

-7-5-7--7--7-7--3--3-3-3--3--5--5-5-5----3--3---5--5--|----------------------

------------------------------------------------------|--0--------0----------

Slightly slower

-------12--------------------------------------------------------------------

-12-14----14-12-/14---12-14-12-----------------------------------------------

-------------------------------14-12--7--------------------------------------

--------------------------------------0----------0-0----------0-------0-0----

(/ = slide up) Lyrics enter

-------------------------------0---------------------------------------------

--------------------------0-2----2--0----------------------------------------

--0----------5--7--0-----------------------------5-7-------------------------

---------------------------------------0--------------0--------0--------0-0--

---------------------------------------------0-------------------------------

-----------------------------------------0-2---2-0---------------------------

-------------------0-------5--7--0-------------------------------------------

-0-------0-0----------------------------------------0------0-----------------

-----------------------------------------------------------------------------

-----------------------------------------------------------------------------

-7--7--3--3-3-3-3---5--5-5-5-5-->-->--->-->---7-7-7-7-7--7--3--3-3-3-3----5--

-0------------------------------3--3---1--1----------------------------------

Slightly faster

-----------------------------------------------------------------------------

-----------------------------------------------------------------------------

-5-5-5-5---------------------------7--7-7-7--7-7--3--3-3-3--3--5--5-5-5--5-0-

---------3-3-3-3--2-2-2-2--0--0-0--------------------------------------------

-----------------------------------------------------------------------/7--5-

--------->--->---------------------------------------------------------------

->--->---5---5-------------7--7-7--3--3-3-3--3-3--5--5-5-5---3---------------

-3---3------------0---0-0----------------------------------------------------

-------------/7--5--------------/7--5-----------/7--5------------------------

-7--5---------------7-5----------------7-5-------------7-5-------------------

-------------------------7------------------7--------------7-----------------

-------0-----------------0-0----------------0--------------0------0-------0--

--------------------------------------0--------------------------------------

----------------------------------0-2---2-0----------------------------------

-----------0---------5-7--0-------------------------------------0--------5-7-

--0-0----------------------------------------0--------0-0--------------------

---------0-------------------------------------------------------------------

-----0-2---2-0-2-------------------------------------------------------------

-0-------------------5-7--------7--3---3-3-3---3---5--5-5-5--5--->-->--->-->-

--------------------------0---0-0--------------------------------3--3---1--1-

-----------------------------------------------------------------------------

-----------------------------------------------------------------------------

---------7--7-7--3--3-3-3--3-3--5--5-5-5--5---------------------------7--7-7-

-0--0-0--------------------------------------3-3-3-3--2-2-2-2--0--0-0--------

-----------------------------------------------------------------------------

-------------------------------------->--->----------------------------------

-3--3-3-3---3-3--5--5-5-5-5--->--->---5---5-----------------7--7-7-7--3--3-3-

------------------------------3---3---------------0---0-0---0----------------

------------------------/7--5-------------/7---5-----------/7--5-------------

-------------------------------7--5---------------7--5------------7-5--------

-3--3-3--5--5-5-5--3-----------------7------------------7-------------7------

-------------------------------------0------------------0-------------0--0-0-

-----/7--5-------------------------------------------------------------------

------------7-5--------------------------------------------------------------

-5----------------7---------3--3-3-3--3-3--5--5-5-5--5-5---7-7-7-7--5-5-5-5--

------------------0----------------------------------------------------------

-----------------------------------------------------------------------------

---------------------------------------------------------9-7-----------------

----------7--7-7-7--7-7---3--3-3-3--3-3--5--5-5-5--5-5-------10-9-10-9-7-5-7-

--0--0-0---------------------------------------------------------------------

-----------------------------------------------------------------------------

----------------------------------------9-7----------------------------------

-7-7-7--7-7--3--3-3-3--3---5--5-5-5--5------10-9-10-9-7-5-7-7-7--7-7--3--3-3-

-----------------------------------------------------------------------------

-------------------------------------------------------0--------------0----7\

--------------------------->-->--->-->----------4--------4------.---4---4----

-3---3-3---5--5-5-5--5-5---3--3---5--5-------2-----2--------2---3------------

-------------------------------------------0---------------------------------

(. = staccatto)

-----------0------------0----7\--------------0------------0----7\------------

-----4-------4-----.--4---4------------4-------4-----.--4---4-----------4----

---2---2-------2---3-----------------2---2-------2---3----------------2---2--

-0---------------------------------0-------------------------------0---------

(\ = slide down)

-0--------------0----7\------------------------------------------------------

----4------.--4---4----------h----------------->-->--------------------->-->-

-------2---3----------------5-7--7-7-7-7--7-7--3--3----0-0--0-0-0--0-0--5--5-

-----------------------------------------------1--1---------------------3--3-

Guitar solo

-----------------------------------------------------------------------------

-->-->--------------------->-->--------------------->-->--->-->--------------

--2--2----7--7-7-7-7--7-7--3--3----0-0--0-0-0--0-0--5--5---2--2---7--7-7-7-7-

--0--0---------------------1--1---------------------3--3---0--0--------------

-----------------------------------------------------------------------------

------>-->--------------------->-->--->-->---------------------->-->---------

-7-7--3--3----0-0--0-0-0--0-0--5--5---2--2-----7--7-7-7-7--7-7--3--3----0-0--

------1--1---------------------3--3---0--0----------------------1--1---------

-----------------------------------------------------------------------------

------------->-->--->-->-----------------------------------------------------

-0-0-0--0-0--5--5---2--2----/7---7--3--3-3-3--3-3--5--5-5-5--5-5--->-->-->-->

-------------3--3---0--0-------------------------------------------3--3--1--1

end guitar Chorus

solo

-----------------------------------------------------------------------------

-----------------------------------------------------------------------------

----------7--7-7--3--3-3-3--3-3--5--5-5-5--5-5----------------------------7--

--0--0-0----------------------------------------3-3-3-3--2-2-2-2--0--0-0-----

-----------------------------------------------------------------------------

---------------------------------------->-->---------------------------------

--3---3-3-3---3-3--5--5-5-5--5-5-->-->--5--5-----------7--7-7---3--3-3-3--3-3

----------------------------------3--3---------0--0-0------------------------

-----------------------------------------------------------------------------

-----------------------------------------------------------------------------

--5-5-5-5-5--5-5------------2-2-2-2-----------7--7-7-7---7-7---3--3-3-3--3-3-

-------------------3-3-3-3------------0--0-0---------------------------------

-----------------------------------------------------------------------------

-----------------------------------------------------------------------------

-5--5-5-5--5-5-->-->---->-->------------7--7-7-7--7-7--3--3-3-3--3-3--5--5-5-

----------------3--3----1--1----0--0-0---------------------------------------

-----------------------------------------------------------------------------

-----------------------------------------------------------------------------

-5--5-5---------------------------7--7-7-7--7-7--3--3-3-3--3-3--5--5-5-5--5-5

---------3-3-3-3--2-2-2-2--0--0-0--------------------------------------------

----------------------------------------------------------/7--5------------||

---------->-->---------------------------------------------------7--5------||

->-->--(0)5--5------------7---3--3-3-3--3---5-----3------------------------||

-3--3--------------0---------------------------------------------------0---||

Ritard.

Get this song at:  amazon.com sheetmusicplus.com

Share your thoughts

0 Comments found