Iron

Iron - Maiden - Wasted Years guitar tab

intro

-12-0-0-0-0-7--0-0-0-0-8--0-0-0-0-5--0-0-0-0-7p0-0-0-3p0-0-0--5--0-0-0-0-2-

-------------------------------------------------------------------------------

-

-------------------------------------------------------------------------------

-

-------------------------------------------------------------------------------

-

-------------------------------------------------------------------------------

-

-------------------------------------------------------------------------------

-

-0-0-0-0-3---0-0-0-0-5--0-0-0-0-2--0-0-3p0-0--0---

-----------------------------------------------------

-----------------------------------------------------

-----------------------------------------------------

-----------------------------------------------------

-----------------------------------------------------

verse

From the coast of gold....

-------------------------------------------------------------------------------

-------------------------------------------------------------------------------

-7/9----9-------9-----9-------9/12-12-12---12/7----7-----7-----7-------7-7-7

-7/9----9-------9-----9-------9/12-12-12---12/7----7-----7-----7-------7-7-7

-5/7----7-------7-----7-------7/10-10-10---10/5--5---5-5---5-5---5-5-5------

-----0-----0-0----0-0---0-0-0-------------------------------------------------

I'm travelin on....

far and wide

-------------------------------------------------------------------------------

-------------------------------------------------------------------------------

-7/9----9-------9-----9-------9/12-12-12------------------------------12-12--

-7/9----9-------9-----9-------9/12-12-12---12/11---11----12---12-12-12-12--

-5/7----7-------7-----7-------7/10-10-10---10/9--9--9--9--9-9--9--9--10-10--

-----0-----0-0----0-0---0-0-0-------------------------------------------------

But now it seems I'm just a

stranger

------------------------------------------------------

------------------------------------------------------

-12/5----5---------------------------9-----9------9--

-12/5----5-----5------4-4-4-4-5-----9-----9------9--

-10/3--3-3-3-3-3------5-5-5-5-7-----7-----7------7-

-----------------------------------0----0-0---0-0----

And all the things...

-------------------------------------------------------------------------------

-------------------------------------------------------------------------------

-7/9----9-------9-----9-------9/12-12-12---12/7----7-----7-----7-------7-7-7

-7/9----9-------9-----9-------9/12-12-12---12/7----7-----7-----7-------7-7-7

-5/7----7-------7-----7-------7/10-10-10---10/5--5---5-5---5-5---5-5-5------

-----0-----0-0----0-0---0-0-0------------------------------------------------

it isn't someone else

-----------------------------------------------------------------------

-----------------------------------------------------------------------

-9/12-12-12---12/7----7-----7-----7-------7/12-12-12-12----5--------

-9/12-12-12---12/7----7-----7-----7-------7/12-12-12-12----5-----5--

-7/10-10-10---10/5--5---5-5---5-5---5-5-5---10-10-10-10-3-3-3-3-3--

-----------------------------------------------------------------------

for rest of verse, just repeat

Chorus

golden years......

--------------------------------------------3-3---3-3---3-3---3-3--3-3-------

--------------------------------------------3-3---3-3---3-3---3-3--3-3-------

-----5---2----7----5---2------9-----7----5-----5-----5-----5-----5-----5-----

-5---5---2----7----5---2------9-----7-------------------------------------4-4-

-5---3---0----5----3---0------7-----5-------------------------------------5-5-

-3-----------------------------------------------------------------------------

interlude (play intro riff)

rhythm under solo

-----------------------------------------------------------------

-----------------------------------------------------------------

-9------------7-----------7/5-----5-----5------5-----5/7-7-7---

-9-----(12x)--7------(5x)--7/5-----5-----5------5-----5/7-7-7---

-7------------5-5-5-------5/3-3-3-3-3-3-3-3-3-3-3-3-3/5-5-5---

---0-0-----------------------------------------------------------

outro

---------------------------------------

-3/5-3h5p3----------------------------

------------5---4---2--0--------------

--------------------------2-----2-----

--------------------------------2-----

--------------------------------0-----

or:

---------------------------------------

---------------------------------------

---------------------------------4-----

---------------------------------2-----

-3-3-3-2-2-2-0-0-0--------------2-----

--------------------3-3-3-5-3-0--0----

Get this song at:  amazon.com sheetmusicplus.com

Share your thoughts

0 Comments found