Iron

Iron - Maiden - Wasted Years bass tab

Wasted Years ( Smith )

( From the album " Somewhere in Time " )

---------------|---------------------12--9--11--7--9--5--7--4--5------------|

---------------|------------------------------------------------------------|

---------------|--------------------------------------------------5--5------|

---------------|--0-------0-------0-----------------------------------------|

Guitar enters with riff, bass enters on cue end intro

-----------------------------------------------------------------------------

-------------------------5-5-5-5-5-------------------------------------------

-7--7-7-7-7-7-7-7-7-7-7-------------5-5-5-5-5-5-5-5-5-5-5-5-5-5-5--7--7-7-7-7

-----------------------------------------------------------------------------

Lyrics enter : "From the coast...", etc.

-----------------------------------------------------------------------------

-------------5-5-5-5-------------------------5-5-5-5-------------------------

-7-7-7-7-7-7---------5-5-5-5-5-5-5-5-5-5-5-5---------3-3-3-3-3-3-3-3-3-5-5-5-

-----------------------------------------------------------------------------

-----------------------------------------------------------------------------

--------------------------5-5-5-5------------------------5-5-5-5-------------

-7--7-7-7-7-7-7-7-7-7-7-7----------5-5-5-5-5-5-5-5-5-5-5---------3-3-3-3-3-3-

-----------------------------------------------------------------------------

-----------------------------------------------------------------------------

------------------------------------------5-5-5-5----------------------------

-3-3-3-3-3-5-5-5--7--7-7-7-7-7-7-7-7-7-7-----------5-5-5-5-5-5-5-5-5-5-5-5-5-

-----------------------------------------------------------------------------

----|------------------------------------------------------------------------

----|.--------------------------5-5-5-5-------------------------5-5-5-5------

-5-5|.-7-7-7-7-7-7-7-7-7-7-7-7-----------5-5-5-5-5-5-5-5-5-5-5-----------3-3-

----|------------------------------------------------------------------------

-----------------------------------------------------------------------------

-------------------------------------------------5-5-5-5---------------------

-3-3-3-3-3-3-3-3-3-3-5-5-5-7-7-7-7-7-7-7-7-7-7-7-7----------5-5-5-5-5-5-5-5-5

-----------------------------------------------------------------------------

-----------------------------------------------------------------------------

-------5-5-5-5---------------------------------------------------------------

-5-5-5---------3-3-3-3-3-3-3-3-3-5-5-5------------------3-3-3-3-0-0-0-0-5-5-5

--------------------------------------3-3-3-3-3-3-3-3------------------------

-------------------------------------------------7---7-----------------------

-----------------------------------------------7---7---7---10-10-10-12-12-12-

-5-5-5-5-0-3-3-3-3-0-0-0-0-----------------5-5-5-----------------------------

---------------------------0-0-0-0-0-0-0-0-----------------------------------

-----------------------------------------------------------------------------

-14-14-14-16-16-16-17-17-17--------------------------------------------------

--------------------------------------------3-3-3-3-0-0-0-0-5-5-5-0-3-3-3-3-0

----------------------------3-3-3-3-3-3-3-3----------------------------------

-------------------------------7---7------5-5----5-5---5-5----5-5---5-5-----|

-----------------------------7---7---7-------------------------------------.|

-0-0-0-----------------5-5-5------------3------3-----3------3-----3--------.|

-------0-0-0-0-0-0-0-0------------------------------------------------------|

------------12--9--11--7--9--5--7--4--5--2--4--0-----------------------------

-------------------------------------------------0---------------------------

-------------------------------------------------------3-3-3-3-3-3-3-3-3-3-3-

-0-------0-------------------------------------------------------------------

-----------------------------------------------------------------------------

---------------------------------------------12--14-14-14-14-14-14-14-14-14--

-3--5-5-5-5--7-7-7-7-7-7-7-7-7-7-7-7-7-7-7-7---------------------------------

-----------------------------------------------------------------------------

----------------------------------------------------7\-----------------------

-14-14-14-14-14--12\---------------------------5--7--------------------------

----------------------5-5-5-5-5-5-5-5-5-5-5-5-----------3-3-3-3-3-3-3-3-3-3-3

-----------------------------------------------------------------------------

( \ = slide down)

---------------------------------------------------14-------14---------------

---------------------------------------------12-14-----12-14---14--12-14-12--

-3-5-5-5-5--7-7-7-7-7-7-7-7-7-7-7-7-7-7-7-7----------------------------------

-----------------------------------------------------------------------------

-------------------------------------------7---------------------------------

-10-12-10-7----------------------------5-5-----------------------------------

-------------5-5-5-5-5-5-5-5--5-5-5-5---------3-3-3-3-3-3-3-3-3-3-3-3-5-5-5-5

-----------------------------------------------------------------------------

--------------------------------------9--------9-----------------------------

----------------------------------7-9---9--7-9---9---7-9-7-5-7-5-------------

-7-7-7-7-7-7-7-7-7-7-7-7-7-7-7-7---------------------------------7--5-5-5-5-5

-----------------------------------------------------------------------------

-----------------------------------------------------|-----------------------

---------------5-5-7---------------------------------|.----------------------

-5-5-5-5-5-5-5-------3-3-3-3-3-3-3-3-3-3-3-3-5-5-5-5-|.------------------3-3-

-----------------------------------------------------|--3-3-3-3-3-3-3-3------

----------------------------------------------------------------------7---7--

--------------------------------------------------------------------7---7---7

-3-3-0-0-0-0-5-5-5-5-5-5-5-0-3-3-3-3-0-0-0-0------------------5-5-5----------

----------------------------------------------0-0-0-0-0-0-0-0----------------

---5-5----5-5---5-5---5-5----5-5---|------------12--9--11--7--9--5--7--4--5--

----------------------------------.|-----------------------------------------

-3------3-----3-----3------3------.|-----------------------------------------

-----------------------------------|--0-------0------------------------------

-2--4--0-------------------------------------------------------------------||

----------0---------------------------7--5---------------------------------||

-------------3-3-3-2-2-2-0-0-0--------------7------------------------------||

-------------------------------3-3-3-----------0---------------------------||

Rings a while, guitar feedback

Get this song at:  amazon.com sheetmusicplus.com

Share your thoughts

0 Comments found