Iron

Iron - Maiden - Virus bass tab

Intro/Verse(slow part)

A-|--7--10--| Repeat as needed

"Rape of the mind..."

A-|--3-3-3-3---3---3-3-3-3-3---5-| x2

Bridge

G-|--9---------------------5-------------------------------|

D-|--9---------------------5-------------------------------|

A-|--7-7-7-7-7-7-7-7-7-7-7-3-3-3-3-3-3-3-3-3-3-3-3-3-3-3-3-|

G-|--7--------------------------------7-----|

D-|--7--------------------------------5--7--| X2

A-|--5-5-5-5-5-5-5-5-5-5-5-5-5-5-5-5-----5--|

Verse(heavy&fast)

"1.When everyone good thing..."

"2.Without a conscience..."

G-|--9---------------------5-------------------------------|

D-|--9---------------------5-------------------------------|

A-|--7-7-7-7-7-7-7-7-7-7-7-3-3-3-3-3-3-3-3-3-3-3-3-3-3-3-3-|

G-|--7--------------------------------7-----9--|

D-|--7--------------------------------5--7--7--| X2

A-|--5-5-5-5-5-5-5-5-5-5-5-5-5-5-5-5-----5-----|

Chorus

"All in your mind..."

A-|--7-7-7-7-7-7-7-7-10--9--5--3--3-3-3-3-3-3-3-3-10--9--5--7-|

A-|--7-7-7-7-7-7-7-7-10--9--5--3---5---| X2

Solo

A-|--5--5--5--5-5--5--3--3--3--3-3--3--|

Repeat till the end

A-|--7--7--7--7-7--7--5--5--5--5-5--5--| of song..

Get this song at:  amazon.com sheetmusicplus.com

Share your thoughts

0 Comments found