Iron

Iron - Maiden - To Lame A Land bass tab

Tab explanations

-----------------------------------------------------

> Forcefully | / Slide up

. Staccatto | \ Slide down

h Hammer-on/ pull off | : Repeat

a Harmonic | ~ slight bend

-----------------------------------------------------

To Tame a Land ( Harris )

( From the album " Piece of Mind " )

|---11--11--11--11--11--11--11--11--11--11--11--11--11--11--11---9-----7---7-

|.-9---9---9---9---9---9---9---9---9---9---9---9---9---9-----9---7---5---5---

|.---------------------------------------------------------------------------

|----------------------------------------------------------------------------

--7---7---7---7---7---7---7---7---7---7---7---7---7--7--9---11--11--11--11---

5---5---5---5---5---5---5---5---5---5---5---5---5----5--7--9---9---9---9-----

-----------------------------------------------------------------------------

-----------------------------------------------------------------------------

--11--11--11--11--11--11--11--11--11--11--11--9-----8---8---8---8---8---8---8

-9---9---9---9---9---9---9---9---9---9-----9--7---6---6---6---6---6---6---6--

-----------------------------------------------------------------------------

-----------------------------------------------------------------------------

---8---8---8---8---8---8---8--8--9---|----4-4-4--5-4-2-4-----4-4-4--5-4-2-4--

-6---6---6---6---6---6---6----6--7--.|--0-----------------0------------------

------------------------------------.|---------------------------------------

-------------------------------------|---------------------------------------

Slightly faster

----------------h------------------------4-4-4--5-4-2-4----4-4-4--5-4-2-4----

--5-5-5-5-5-5--7-5-5-------------------0-----------------0-------------------

----------------------7-7-7-7---7---7----------------------------------------

-----------------------------------------------------------------------------

---------------h---------------------------4-4-4--5-4-2-4----4-4-4--5-3-2-4--

-6-6-6-6-6-6--8-6-6----------------------0-----------------0-----------------

---------------------8-8-8-8-8---8---8---------------------------------------

-----------------------------------------------------------------------------

----------------h-------------------------4-4-4---5-4-2-4-----4-4-4--5-4-2-4-

--5-5-5-5-5-5--7-5-5--------------------0------------------0-----------------

----------------------7-7-7-7---7---7----------------------------------------

-----------------------------------------------------------------------------

---------------h-------------------------------------------------------------

-6-6-6-6-6-6--8-6-6----------------------------------------------------------

---------------------8-8-8-8--8-8-9---11-10-8-7-8---8-9--11-10-8-7-8---8-8-8-

-----------------------------------------------------------------------------

Vocals enter

-----------------------------------------------------------------------------

-----------------------------------------------------------------------------

-3-3-3-3-3-3-3-3-0-0-0-0-0-0-0-0--8-8--11-10-8-7-8--11-10-8-7-8----5-5-5-5-5-

-----------------------------------------------------------------------------

-----------------------------------------------------------------------------

----h---h------------------------------------------------------------h-------

-5-7--5----------------8-8--11-10-8-7-8---11-10-8-7-8---3-3-3-3-3-3-5--3--0-0

---------8-7-7-7-7-7-7-------------------------------------------------------

-----------------------------------------------------------------------------

----------------------------------------------------h---h--------------------

-0-0-0-3-5--11-10-8-7-8--11-10-8-7-8---5-5-5-5-5-5-7--5----------------------

----------------------------------------------------------7-7-7-7-7-7-7------

---4-4-4--5-4-2-4----4-4-4--5-4-2-4-----------------h-h----------------------

-4-----------------0-------------------5-5-5-5-5-5-7-5-7---------------------

-----------------------------------------------------------7-7-7-7---7--7----

-----------------------------------------------------------------------------

---4-4-4--5-4-2-4----4-4-4--5-4-2-4------------------h-h-h-------------------

-0-----------------0-------------------6-6-6-6-6-6--8-6-8-6------------------

-------------------------------------------------------------8-8-8-8---8--8--

-----------------------------------------------------------------------------

---4-4-4--5-4-2-4----4-4-4--5-4-2-4-----------------h-h----------------------

-0-----------------0-------------------5-5-5-5-5-5-7-5-7---------------------

-----------------------------------------------------------7-7-7-7---7--7----

-----------------------------------------------------------------------------

---4-4-4--5-4-2-4----4-4-4--5-4-2-4------------------h-h-h-------------------

-0-----------------0-------------------6-6-6-6-6-6--8-6-8-6------------------

-------------------------------------------------------------8-8-8-8---8--8--

-----------------------------------------------------------------------------

----4-4-4--5-4-2-4-----4-4-4--5-4-2-4------------------h---------------------

--0-----------------0--------------------5-5-5-5-5-5--7-5-5------------------

-------------------------------------------------------------7-7-7-7---7---7-

-----------------------------------------------------------------------------

---4-4-4--5-4-2-4----4-4-4--5-4-2-4-------------------h----------------------

-0-----------------0--------------------6-6-6-6-6-6--8-6-6-------------------

---------------------------------------------------------------8-8-8-8-8---8-

-----------------------------------------------------------------------------

-------4-4-4--5-4-2-4----4-4-4--5-3-2-4------------------h-------------------

-----0-----------------0-------------------5-5-5-5-5-5--7-5-5----------------

-8-------------------------------------------------------------7-7-7-7---7--7

-----------------------------------------------------------------------------

-------4-4-4---5-4-2-4-----4-4-4--5-4-2-4----------------h-------------------

-----0------------------0------------------6-6-6-6-6-6--8-6-6----------------

---------------------------------------------------------------8-8-8-8--8-8-9

-----------------------------------------------------------------------------

-----------------------------------------------------------------------------

-----------------------------------------------------------------------------

--11-10-8-7-8---8-9--11-10-8-7-8---8-8-8--3-3-3-3-3-3-3-3-0-0-0-0-0-0-0-0--8-

-----------------------------------------------------------------------------

-----------------------------------------------------------------------------

----------------------------------------------h---h--------------------------

-8--11-10-8-7-8--11-10-8-7-8----5-5-5-5-5--5-7--5----------------8-8--11-10-8

---------------------------------------------------8-7-7-7-7-7-7-------------

-----------------------------------------------------------------------------

-----------------------------------------------------------------------------

-7-8--11-10-8-7-8---3-3-3-3-3-3-5--3--0-0--0-0-0-3-5--11-10-8-7-8--11-10-8-7-

-----------------------------------------------------------------------------

-----------------------------------------------------------------------------

------------------h---h------------------------------------------------------

-8---5-5-5-5-5-5-7--5-----------------7-7-7-7-7-7-7-7--7-7-7-7-7-7-7-7-3-3-3-

-----------------------7-7-7-7-7-7-7-----------------------------------------

-----------------------------------------------------------------------------

-----------------------------------------------------------------------------

-3-3-3-3--0-0-0-0-0-0-0--7-7-7-7-7-7-7--7-7-7-7-7-7-7--5-5-5-5-5-5-5---------

----------------------------------------------------------------------7-7-7-7

-----------------------------------------------------------------------------

-----------------------------------------------------------------------------

---5-7--7-7-7-7-7-7-7--7-7-7-7-7-7-7---3-3-3-3-3-3-3---0-0-0-0-0-0-0---7-7-7-

-8---------------------------------------------------------------------------

-----------------------------------------------------------------------------

-----------------------------------------------------------------------------

-7-7-7-7--7-7-7-7-7-7-7--5-5-5-5-5-5-5------------5-7---5-5-5-5-5-5-5--5-5-5-

----------------------------------------7-7-7-7-8----------------------------

-----------------------------------------------------------------------------

-----------------------------------------------------------------------------

-5-5-5-5---2-2-2-2-2-2-2------------0-2--5-5-5-5-5-5-5--5-5-5-5-5-5-5--2-2-2-

--------------------------3-3-3-3-3------------------------------------------

-----------------------------------------------------------------------------

---------------------------12-----12-----12---14-----14-----14---15----15----

-2-2-2-2------------0-2-------0-0----0-0----0----0-0----0-0----0----0-0---0-0

----------3-3-3-3-3----------------------------------------------------------

------------------h----------------------------------------------------------

-15---14---14---14-15-14-----12-----12-----12---14-----14-----14---15-----15-

----0----0----0-----0---0-------0-0----0-0----0----0-0----0-0----0----0-0----

-----------------------------------------------------------------------------

------------------------h----------------------------------------------------

-----15---14---14---14-12-----7-----7-----7---9-----9-----9---10----10----10-

-0-0----0----0----0-----0-------0-0---0-0---0---0-0---0-0---0----0-0---0-0--0

-----------------------------------------------------------------------------

----------h---h--------------------------------------------------------------

9---9----9-10---9------7-----7-----7----9-----9-----9----10-----10-----10----

--0---0-----0-----0------0-0---0-0----0---0-0---0-0---0-----0-0----0-0----0--

-----------------------------------------------------------------------------

-----------------------------------------------------------------------------

-9---9---9-7----12-----12-----12---14-----14-----14---15-----15-----15---14--

---0---0--0--------0-0----0-0----0----0-0----0-0----0----0-0----0-0----0----0

-----------------------------------------------------------------------------

" The time.. will come.."

--------h--------------------------------------------------------------------

-14---14-15-14----12-----12-----12----14-----14-----14---15-----15-----15----

----0-----0----0-----0-0----0-0----0-----0-0----0-0----0----0-0----0-0----0--

-----------------------------------------------------------------------------

-------------h---------------------------------------------------------------

-14---14---14-12---7-----7-----7---9-----9------9---10-----10-----10---9-----

----0----0-----0-----0-0---0-0---0---0-0----0-0---0----0-0----0-0----0---0---

-----------------------------------------------------------------------------

--------h--------------------------------------------------------------------

--9----9-10-9----7-----7-----7---9-----9------9---10-----10-----10---9----9--

----0-----0---0----0-0---0-0---0---0-0---0-0----0----0-0----0-0----0----0---0

-----------------------------------------------------------------------------

----h------------------------------------------------------------------------

---9-7--12-----12-----12---14-----14-----14---15-----15-----15---14---14-----

-----0-----0-0----0-0----0----0-0-----0-0---0----0-0----0-0----0----0---0----

-----------------------------------------------------------------------------

---h-------------------------------------------------------------------------

-14-15-14----12-----12-----12----14-----14-----14----15-----15-----15---14---

-----0----0-----0-0----0-0----0-----0-0----0-0----0-----0-0----0-0----0----0-

-----------------------------------------------------------------------------

--------h--------------------------------------------------------------------

-14---14-12---7-----7-----7----9------9------9----10-----10----10----9----9--

----0-----0-----0-0---0-0---0----0-0----0-0----0-----0-0----0-0---0----0----0

-----------------------------------------------------------------------------

---h-------------------------------------------------------------------------

--9-10--9----7------7-----7----9------9------9---10-----10-----10----9----9--

-----0----0-----0-0---0-0---0----0-0----0-0----0----0-0----0-0----0----0----0

-----------------------------------------------------------------------------

---h-----7------3-----------7--7------3----------7--7-----3---------7-7---3--

--9-7----7------3--5--5-----7--7------3--5--5----7--7-----3--5--5---7-7---3--

----0----5------1--5--5-----5--5------1--5--5----5--5-----1--5--5---5-5---1--

-------------------3--3------------------3--3----------------3--3------------

-----------------------------------------------------------------------------

-7--7----->-----10-9-10-9---7--9--.----->---10-9-10-9---7--9--.--->-10-9-10-9

-7--7-----7----------------------10-----7--------------------10---7----------

-5--5------------------------------------------------------------------------

-----------------------------------------------------------------------------

-7--9--.-9-7-------------->--10-9-10-9---7--9--.---->---10-9-10-9---7--9--.--

------10----10-9-10-9-7-5-7--------------------10---7--------------------10--

-----------------------------------------------------------------------------

-----------------------------------------------------------------------------

->-10-9-10-9---7--9--.--9-7--------------->--10-9-10-9---7--9---.--->--10-9--

-7------------------10------10-9-10-9-7-5-7--------------------10---7--------

-----------------------------------------------------------------------------

-----------------------------------------------------------------------------

-10-9---7--9--.-->-10-9-10-9---7--9---.------------------7--->--10-9-10-9---7

-------------10--7-------------------10---------5-7-9-10-----7---------------

------------------------------------------5-7-8------------------------------

-----------------------------------------------------------------------------

-9--.-->--10-9-10-9---7--9---.-->-10-9-10-9---7--9--.-----------------7--->--

---10--7--------------------10--7------------------10---------5-7-9-10----7--

--------------------------------------------------------5-7-8----------------

-----------------------------------------------------------------------------

-10-9-10-9---7-9---.-->--10-9-10-9---7--9--.-->--10-9-10-9---7--9--.--9-7----

------------------10--7-------------------10--7-------------------10------10-

-----------------------------------------------------------------------------

-----------------------------------------------------------------------------

------------>--10-9-10-9---7--9--.-->--10-9-10-9---7--9--.-->--10-9-10-9---7-

-9-10-9-7-5-7-------------------10--7-------------------10--7----------------

-----------------------------------------------------------------------------

-----------------------------------------------------------------------------

-9--.--9-7--------------->--10-9-10-9---7--9--.-->--10-9-10-9---7--9--.-->---

---10------10-9-10-9-7-5-7-------------------10--7-------------------10--7---

-----------------------------------------------------------------------------

-----------------------------------------------------------------------------

-10-9-10-9---7--9--.-----------------7-->--10-9-10-9---7--9--.-->--10-9-10-9-

------------------10--------5-7-9-10----7-------------------10--7------------

----------------------5-7-8--------------------------------------------------

--------------------------------------------------------|--------------------

-7--9--.-->--10-9-10-9---7--9--.-----------------7----7-|.--7-9--10---9---7--

------10--7-------------------10--------5-7-9-10--------|.------0---0---0---0

----------------------------------5-7-8-----------------|--------------------

Guitar Solo

-----------------------------------------------------------------------------

-9---10---9---7---9---10---9---7---9---10---9--5---7---8---7---5---7---8-----

---0----0---0---0---0----0---0---0---0----0------0---0---0---0---0---0---0---

-----------------------------------------------------------------------------

-----------------------------------------|-----------------------------------

-7---5---7---8---7---5---7---8---7--7---.|--7-9---10---9---7---9---10---9----

---0---0---0---0---0---0---0---0--------.|------0----0---0---0---0----0---0--

-----------------------------------------|-----------------------------------

Play 6 times

-----------------------------------------------------------------------------

-7---9---10---9---7----9---10---9--5---7---8---7---5---7---8---7---5---7---8-

---0---0----0---0---0----0----0------0---0---0---0---0---0---0---0---0---0--0

-----------------------------------------------------------------------------

-----------------------------------------------------------------------------

7---5---7---8---7--7-9-11---12---11---9---11---12---11---9---11---12---11----

--0---0---0---0-----------0----0----0---0----0----0----0---0----0----0----0--

-----------------------------------------------------------------------------

-----------------------------------------------------------------------------

-9---11---12---11----7-7--9---10---9---7---9---10---9---7---9---10---9---7---

---0----0----0----0---------0----0---0---0---0----0---0---0---0----0---0---0-

-----------------------------------------------------------------------------

-----------------------------------------------------------------------------

-9---10---9--5---7---8---7---5--7---8---7---5---7---8---7---5---7---8---7-9--

---0----0------0---0---0---0---0--0---0---0---0---0---0---0---0---0---0-----0

-----------------------------------------------------------------------------

-----------------------------------------------------------------------------

-11---12---11---9---11---12---11---9---11---12---11---9---11---12---11-7--9--

----0----0----0---0----0----0----0---0----0----0----0---0----0----0-----0---0

-----------------------------------------------------------------------------

----------------------------------------------------------------|--9---------

-10---9----7---9---10---9---7---9---10---9---7---9---10---9-----|--9---------

----0----0---0---0----0---0---0---0----0---0---0---0----0----0--|--7---------

----------------------------------------------------------------|------------

Slower

------7---------------11--------------8-----------------9-------------------|

------7---------------11--------------8-----------------9-------------------|

------5----------------9--------------6-----------------7-------------------|

----------------------------------------------------------------------------|

Outro

"""""

---11---11---11---11---11---11---11---11---11---11---11---11---11---11--11--9

-9----9----9----9----9----9----9----9----9----9----9----9----9----9------9--7

-----------------------------------------------------------------------------

-----------------------------------------------------------------------------

Slower

--7---7---7---7---7---7----7---7---7---7----7---7---7---7---7--9----11---11--

5---5---5---5---5---5---5----5---5---5----5---5---5---5-----5--7--9----9-----

-----------------------------------------------------------------------------

-----------------------------------------------------------------------------

---11---11---11---11---11---11---11---11---11---11---11---11--11---7----8---8

-9----9----9----9----9----9----9----9----9----9----9----9------9---5--6---6--

-----------------------------------------------------------------------------

-----------------------------------------------------------------------------

---8---8---8---8---8---8---8---8---8---8---8---8---8------9-----11------|

-6---6---6---6---6---6---6---6---6---6---6---6-----6------7------9------|

------------------------------------------------------------------------|

------------------------------------------------------------------------|

Ritard.

Get this song at:  amazon.com sheetmusicplus.com

Share your thoughts

0 Comments found