Iron

Iron - Maiden - The Wicker Man guitar tab

Intro:

e|-------|--------------------------------------------|

B|-------|--------------------------------------------|

G|----9--|--9-----------------9--9-----------------9--|

D|--X-9--|--9-----------------9--9-----------------9--|

A|--X-7--|--7-----------------7--7-----------------7--|

E|--X-0--|--0--0--0--0--0--0--0--0--0--0--0--0--0--0--|

e|---------------------------------------------|

B|---------------------------------------------|

G|--9---------------------------12--12------9--|

D|--9----------------10--10-----12--12------9--|

A|--7----------------10--10-----10--10--X---7--|

E|--0--0--0--0--0--0--8---8--X--------------0--|

Pre-Chorus:

e|---------------------------------------------------|

B|---------------------------------------------------|

G|--7~-------------7/9----5~-----/12--12--12--11--9--|

D|--7~-------------7/9----5~-----/12--12--12--11--9--|

A|--5~-------------5/7----3~-----/10--10--10---9--7--|

E|---------------------------------------------------|

e|--------------------------------------------|

B|--------------------------------------------|

G|--7~-------------7/9----5~----------5---7~--|

D|--7~-------------7/9----5~------5---5---7~--|

A|--5~-------------5/7----3~------5---3---5~--|

E|--------------------------------3-----------|

Chorus:

E5 C5 G5 A5

e|--------------------|------------|---------------------|

B|-12-10-12-10-12-----|------------|--12-10-12-13-12-----|

G|----------------12--|-repeat 2x--|-----------------12--|

D|--------------------|------------|---------------------|

A|--------------------|------------|---------------------|

E|--------------------|------------|---------------------|

Lead:

e|--------------------------------------------------------------|

B|--------------------------------------------------------------|

G|--------------------------------------------------------------|

D|-----------------------7------7------7-9-------7-9-10-9-7-----|

A|--7~--7-9-10--7~---------9-10---9-10--------10------------10--|

E|--------------------------------------------------------------|

e|-----------------------0--0--12p10--0--0--14p12--0--0--0----|

B|------------------------------------------------------------|

G|------------------------------------------------------------|

D|------------------------------------------------------------|

A|--7~--7-9-10--7~--------------------------------------------|

E|------------------------------------------------------------|

e|--14-15-17-15-14-----|

B|-----------------17--|

G|---------------------|

D|---------------------|

A|---------------------|

E|---------------------|

Solo:

e|---------------------------7h8p7-10-7------------------------|

B|--10^F----r1/2---^1/2-----------------10h12-8-12-10h12-8-10--|

G|-------------------------------------------------------------|

D|-------------------------------------------------------------|

A|-------------------------------------------------------------|

E|-------------------------------------------------------------|

e|-------------------------7-----------------------------------|

B|--10p0----------10^F-------7-10-----7------------------------|

G|-------9-8~---------------------9^F---10-9-7---9~--7~--------|

D|---------------------------------------------9---------------|

A|-------------------------------------------------------9-10--|

E|-------------------------------------------------------------|

e|-----------------------------------------------------------------|

B|-----------------------------------------------------------------|

G|-----------------------------------------------------------------|

D|--7--------7---------------------7h10-7------------7-------------|

A|----10-9-7---10-9-7---(6h7)p6~----------9p7----7-9---9p7----7-9--|

E|--------------------------------------------11-----------11------|

e|--------------------------------------------------|

B|--7-------------7---------------------------------|

G|----8---------8---8-------------------------------|

D|------10-7-10-------10-7----10p7--------7-10------|

A|---------------------------------9----9-----------|

E|-----------------------------------11-------------|

e|--------------------------------------|

B|--------------------------------------|

G|--12t0-4-12t0-4-12t0-4-12t0-4-12/////-|

D|--------------------------------------|

A|--------------------------------------|

E|--------------------------------------|

e|--------16-17-19/20-19p17----19----------------17-----------------|

B|--17-19-------------------20----20p19-17h19h20----20p19-17-20p19--|

G|------------------------------------------------------------------|

D|------------------------------------------------------------------|

A|------------------------------------------------------------------|

E|------------------------------------------------------------------|

e|---------0----------17h19h20-19p17----17---------------------------|

B|--17-------17h19h20----------------20----20p17--1715--------------|

G|------20----------------------------------------------17-16--(16)~-|

D|-------------------------------------------------------------------|

A|-------------------------------------------------------------------|

E|-------------------------------------------------------------------|

Outro:

E5 C5 G5 D5

V|Oh-------Oh-------Oh----------Oh--------|

e|---------------------|-----------|--------------------|

B|---------------------|-----------|--------------------|

G|-(4)-(2)--(4)-(4)~---|-repeat-2x-|-(4)-(2)--(0)-------|

D|--5---4----5---7~----|-----------|--5---4----2--(4)~--|

A|---------------------|-----------|---------------5~---|

E|---------------------|-----------|--------------------|

e|----------|

B|---2~-----|

G|---2~-----|

D|---0~-----|

A|----------|

E|----------| END.

Get this song at:  amazon.com sheetmusicplus.com

Share your thoughts

0 Comments found