Iron

Iron - Maiden - The Wicker Man bass tab

Tab explanations

-----------------------------------------------------

> Accent | / Slide up

. Staccatto | \ Slide down

h Hammer-on/ pull off | : Repeat

� Harmonic | ~ slight bend

-----------------------------------------------------

Wicker Man ( Harris )

( From the album " Brave New World " )

G|-R--|-----------R---------------------------------R--------------|---9-9-----

D|-E-.|.----------E--------GUITAR-------REST--------E-------------.|.--9-9-----

A|-S-.|.----------S---------------------------------S-------------.|.--7-7-----

E|-T--|-----------T---------------------------------T--------------|-----------

--9-9------9-9-------------------|---9-9-----------9-9-----------9-9-----------

--9-9------9-9-------------5-5--.|.--9-9-----------9-9-----------9-9-----------

--7-7------7-7----003--3-3->->--.|.--7-7-7-7-7-7-7-7-7-7-7-7-7-7-7-7-7-7-7-7-7-

---------------------------------|---------------------------------------------

-----------------|---9-9-----------9-9-----------9-9---------------------------

-----------5-5--.|.--9-9-----------9-9-----------9-9------------------------5-5

--003--3-3->->--.|.--7-7-7-7-7-7-7-7-7-7-7-7-7-7-7-7-7-7-7-7-7-----003--3-3->->

-----------------|-------------------------------------------------------------

|---9-9-----------9-9-----------9-9------------------------------|-------------

|.--9-9-----------9-9-----------9-9------------------------5-5--.|.------------

|.--7-7-7-7-7-7-7-7-7-7-7-7-7-7-7-7-7-7-7-7-7-----003--3-3->->--.|.--5-5-5-5-5-

|----------------------------------------------------------------|-------------

Lyrics enter Play 4 times

-------------------------------------------------------------------|

-------------------5-5-5--4-2-------------------------------------.|

-5-5-5-5-3-3-3-3--------------5-5-5-5-5-5-5-5-5-3-3-3-3----->-3-3-.|

--------------------------------------------------------3-3--------|

Play 2 times

|-----------------------------------------------------|

|.---------------------------------------------------.|

|.--7-7-7-7-7---3-3-3-3-3----------------------------.|

|---------------------------3-3-3-3-3----5-5-5-5-5----|

Chorus (Your time will come...) Play 4 times

|---9-9-----------9-9-----------9-9------------------------------|-------------

|.--9-9-----------9-9-----------9-9------------------------5-5--.|.------------

|.--7-7-7-7-7-7-7-7-7-7-7-7-7-7-7-7-7-7-7-7-7-----003--3-3->->--.|.--5-5-5-5-5-

|----------------------------------------------------------------|-------------

Play 4 times

-------------------------------------------------------------------|

-------------------5-5-5--4-2-------------------------------------.|

-5-5-5-5-3-3-3-3--------------5-5-5-5-5-5-5-5-5-3-3-3-3----->-3-3-.|

--------------------------------------------------------3-3--------|

Play 2 times

|-----------------------------------------------------|

|.---------------------------------------------------.|

|.--7-7-7-7-7---3-3-3-3-3----------------------------.|

|---------------------------3-3-3-3-3----5-5-5-5-5----|

Chorus (Your time will come...) Play 4 times

|------------------------------------------------|-----------------------------

|.----------------------------------------------.|.----------------------------

|.--7-7-7-7-7-7-7-7-7---3-3-3-3-----------------.|.----------------------------

|---------------------------------3-3-3--5-5-5---|--7-7-7-7-7--5-5-5-5-5--3-3-3

Play 4 times

------------------|------------------------------------------------|

-----------------.|.----------------------------------------------.|

-----------------.|.--7-7-7-7-7-7-7-7-7---3-3-3-3-----------------.|

-3-3--5-5-5-5-5---|---------------------------------3-3-3--5-5-5---|

Play 4 times Play 4 times

|-----------------------------------------------------|

|.---------------------------------------------------.|

|.--7-7-7-7-7---3-3-3-3-3----------------------------.|

|---------------------------3-3-3-3-3----5-5-5-5-5----|

Chorus (Your time will come...) Play 8 times

|---9---------------5---------------------------------7---------------|

|.--9---------------5---------------------------------7--------------.|

|.--7--7-7-7--7-7---3->3--3-3-3--3-3--->--------------5--5-5-5--5-5--.|

|--------------------------------------3--3-3-3-3-3-------------------|

Play 3 Times

then The End

|---9---------------5---------------------------------7~~-----|

|.--9---------------5---------------------------------7~~----.|

|.--7--7-7-7--7-7---3->3--3-3-3--3-3--->--------------5~~----.|

|--------------------------------------3--3-3-3-3-3-----------|

Let note ring a while

Get this song at:  amazon.com sheetmusicplus.com

Share your thoughts

0 Comments found