Iron

Iron - Maiden - The Edge Of Darkness bass tab

Tab explanations

-----------------------------------------------------

> Forcefully | / Slide up

. Staccatto | \ Slide down

h Hammer-on/ pull off | : Repeat

� Harmonic | ~ slight bend

-----------------------------------------------------

The Edge of Darkness ( Harris/Bayley/Gers )

( From the album " The X Factor " )

--------------------------|--9----9---9----7----7---7---9---9---9------9---9-

--------------------------|--9------9------7------7-----9-----9------9---9---

--------------------------|--7-------------5------------7----------7---------

--------------------------|--------------------------------------------------

Intro (Helicopter sounds) Slowly

-9-----------7----7---7---9----9---9-------9---9---9----9---9--7----7---7---9

-9--9---9----7--7---7-----9--9---9-----------9-----9--9---9----7--7---7-----9

-7----7---7--5------------7------------7-7---------7-----------5------------7

-----------------------------------------------------------------------------

---9---9-----9-9---9---9----9---9--7-----7----7---9--------9----9-9---9------

-9---9-----9-----9-----9--9---9----7---7----7-----9--9---9----9-----9--------

-----------------------7-----------5--------------7----7---------------------

-----------------------------------------------------------------------------

-9----9---9----7----7---7--9-----9---9-------7-------9-----9------9---9--7---

-9--9---9------7--7---7----9---9---9-------7-------9-------9----9---9----7---

-7-------------5-5---------7-7-----------5-------7---------7--7----------5-5-

-----------------------------------------------------------------------------

Guitar 1 enters

---7---7--9-----9---9-------7------9----9--9---9---9--7-7---7---7--9-9---9---

-7---7----9---9---9-------7------9------9----9---9----7---7---7----9---9---9-

----------7-7-----------5------7--------7-------------5------------7---------

-----------------------------------------------------------------------------

Vocals enter

-9-------7-------9----9----9---9---9--7----7---7---7--9---9---9---9------7---

-------7-------9------9--9---9---9----7--7---7---7----9-9---9---9------7-----

-----5-------7--------7---------------5---------------7--------------5-------

-----------------------------------------------------------------------------

-----5--------2----9---9---9---9--7---7---7---7--9---9---9---9------5------7-

---5--------2------9-9---9---9----7-7---7---7----9-9---9---9------5------7---

-3--------0--------7--------------5--------------7--------------3------5-----

-----------------------------------------------------------------------------

-9---9---9---9--7---7---7---7--9---9---9---9------5------2---9---9---9---9---

-9-9---9---9----7-7---7---7----9-9---9---9------5------2-----9-9---9---9-----

-7--------------5--------------7--------------3------0-------7---------------

-----------------------------------------------------------------------------

Drums enter(cymbal)

-7---7---7---7--9---9---9---9------5------7---9---9---9---9--7---7---7---7---

-7-7---7---7----9-9---9---9------5------7-----9-9---9---9----7-7---7---7-----

-5--------------7--------------3------5-------7--------------5---------------

-----------------------------------------------------------------------------

-9---9---9---9-------5------2--9---9---9---9--7---7---7---7--9---9---9--9----

-9-9---9---9-------5------2----9-9---9---9----7-7---7---7----9-9---9---9-----

-7---------------3------0------7--------------5--------------7---------------

-----------------------------------------------------------------------------

-----5------7-------9---9---9------5---5---5------7---7--7------5------7----|

---5------7-------9---9---9------5---5---5------7---7---7-----5------7------|

-3------5-------7--------------3--------------5-------------3------5--------|

----------------------------------------------------------------------------|

-9-9-9-9-9----7-7-7-7-7----9-9-9-9-9----5-5-5----7-7-7----9-9-9-9-9----7-7-7-

-9-9-9-9-9----7-7-7-7-7----9-9-9-9-9----5-5-5----7-7-7----9-9-9-9-9----7-7-7-

-7-7-7-7-7----5-5-5-5-5----7-7-7-7-7----3-3-3----5-5-5----7-7-7-7-7----5-5-5-

-----------------------------------------------------------------------------

Heavier

-7-7----9-9-9-9-9----5-5-5----2-2-2----9-9-9-9-9----7-7-7-7-7----9-9-9-9-9---

-7-7----9-9-9-9-9----5-5-5----2-2-2----9-9-9-9-9----7-7-7-7-7----9-9-9-9-9---

-5-5----7-7-7-7-7----3-3-3----0-0-0----7-7-7-7-7----5-5-5-5-5----7-7-7-7-7---

-----------------------------------------------------------------------------

-5-5-5----7-7-7----9-9-9-9-9----7-7-7-7-7----9-9-9-9-9----5-5-5----2-2-2-----

-5-5-5----7-7-7----9-9-9-9-9----7-7-7-7-7----9-9-9-9-9----5-5-5----2-2-2-----

-3-3-3----5-5-5----7-7-7-7-7----5-5-5-5-5----7-7-7-7-7----3-3-3----0-0-0-----

-----------------------------------------------------------------------------

-9-9-9-9-9----7-7-7-7-7----9-9-9-9-9----5-5-5----7-7-7----9-9-9-9-9----7-7-7-

-9-9-9-9-9----7-7-7-7-7----9-9-9-9-9----5-5-5----7-7-7----9-9-9-9-9----7-7-7-

-7-7-7-7-7----5-5-5-5-5----7-7-7-7-7----3-3-3----5-5-5----7-7-7-7-7----5-5-5-

-----------------------------------------------------------------------------

-7-7----9-9-9-9-9----5-5-5----2-2-2----9-9-9-9-9----7-7-7-7-7----9-9-9-9-9---

-7-7----9-9-9-9-9----5-5-5----2-2-2----9-9-9-9-9----7-7-7-7-7----9-9-9-9-9---

-5-5----7-7-7-7-7----3-3-3----0-0-0----7-7-7-7-7----5-5-5-5-5----7-7-7-7-7---

-----------------------------------------------------------------------------

-5-5-5----7-7-7----9-9-9-9-9----5-5-5-5-5----7-7-7-7-7----5-5-5----7-7-7----|

-5-5-5----7-7-7----9-9-9-9-9----5-5-5-5-5----7-7-7-7-7----5-5-5----7-7-7----|

-3-3-3----5-5-5----7-7-7-7-7----3-3-3-3-3----5-5-5-5-5----3-3-3----5-5-5----|

----------------------------------------------------------------------------|

-9------------------------------12-------------------------------------------

-9------------------------------12-------------------------------------------

-7--7-7-7-7--7-7-7-7--7-7-7-7---10---10-10-10-10---10-10-10-10---10-10-10-10-

-----------------------------------------------------------------------------

Much faster

->------------------------------5------------7------------9------------------

-7--7-7-7-7--7-7-7-7--7-7-7-7---5------.-.---7------.-.---9------------------

--------------------------------3--3-3-3-3---5--5-5-5-5---7--7-7-7-7--7-7-7-7

-----------------------------------------------------------------------------

-----------12----------------------------------------------5-----------------

-----------12----------------------------------------------5-----------------

-7-7-7-7---10---10-10-10-10---10-10-10-10---10-10-10-10----3--3-3-3-3--3-3-3-

-----------------------------------------------------------------------------

-------------7------------9------------------------------12------------------

-------------7------.-.---9------------------------------12------------------

3--3-3-3-3---5--5-5-5-5---7--7-7-7-7--7-7-7-7--7-7-7-7---10---10-10-10-10----

-----------------------------------------------------------------------------

-----------------------------7------------------------------5----------------

-----------------------------7------------------------------5--.-------------

-10-10-10-10---10-10-10-10---5--5-5-5-5--5-5-5-5--5-5-5-5---3--3--3-3-3-3----

-----------------------------------------------------------------------------

-7-------------9-----------------------------------------12--7---------------

-7-.-----------9-----------------------------------------12--7---------------

-5-5--5-5-5-5--7--7-7-7-7-7-7-7-7-7-7-7-7-7-7-7-7-7-7-7--10--5-5-5-5-5--5-5-5

-----------------------------------------------------------------------------

------------4-------------5---7---9----------------------------------------12

------------4-.-----------5---7---9----------------------------------------12

5--5-5-5-5--2-2--2-2-2-2--3-3-5-5-7--7-7-7-7-7-7-7-7-7-7-7-7-7-7-7-7-7-7-7-10

-----------------------------------------------------------------------------

-7----------------------------4-------------5-------7----9-------------------

-7----------------------------4-.-----------5-------7----9-------------------

-5-5-5-5-5--5-5-5-5--5-5-5-5--2-2--2-2-2-2--3-3-3-3-5-5--7--7-7-7-7-7-7-7-7-7

-----------------------------------------------------------------------------

------------12--------------------------------------------5------------------

------------12--------------------------------------------5------------------

7-7-7-7-7---10--10-10-10-10---10-10-10-10---10-10-10-10---3-3-3-3-3---3-3-3-3

-----------------------------------------------------------------------------

---------7------------9-----------------------------------------12--7--------

---------7------------9-----------------------------------------12--7--------

3-3-3-3--5-5-5-5-5-5--7--7-7-7-7-7-7-7-7-7-7-7-7-7-7-7-7-7-7-7--10--5-5-5-5-5

-----------------------------------------------------------------------------

---------------------------------5-------7----9------------------------------

---------------------.-----------5-------7----9------------------------------

-5-5-5-5--5-5-5-5--2-2--2-2-2-2--3-3-3-3-5-5--7--7-7-7-7-7-7-7-7-7-7-7-7-7-7-

-----------------------------------------------------------------------------

-----------12--7----------------------------4-------------5-------7--9-------

-----------12--7----------------------------4-.-----------5-------7--9-------

7-7-7-7-7--10--5-5-5-5-5--5-5-5-5--5-5-5-5--2-2--2-2-2-2--3-3-3-3-5--7--7-7-7

-----------------------------------------------------------------------------

---------------------------------12--7-----------------------------4---------

---------------------------------12--7-----------------------------4-.-------

7-7-7-7-7-7-7-7-7-7-7-7-7-7-7-7--10--5--5-5-5-5--5-5-5-5--5-5-5-5--2-2--2-2-2

-----------------------------------------------------------------------------

--5-------7--9---------------------------------------12--7-------------------

--5-------7--9---------------------------------------12--7-------------------

2-3-3-3-3-5--7--7-7-7-7--7-7-7-7--7-7-7-7--7-7-7-7---10--5--5-5-5-5--5-5-5-5-

-----------------------------------------------------------------------------

----------4--------------5-------7---9-----------------------------12--------

----------4-.------------5-------7---9-----------------------------12--------

-5-5-5-5--2-2--2-2-2-2---3-3-3-3-5-5-7--7-7-7-7--7-7-7-7--7-7-7-7--10--10-10-

-----------------------------------------------------------------------------

---------------------------------7-----------------------------5-------------

---------------------------------7-----------------------------5-.-----------

10-10--10-10-10-10--10-10-10-10--5--5-5-5-5--5-5-5-5--5-5-5-5--3-3--3-3-3-3--

-----------------------------------------------------------------------------

7--------------9------------------------------12-----------------------------

7-.------------9------------------------------12-----------------------------

5-5--5-5-5-5---7--7-7-7-7--7-7-7-7--7-7-7-7---10--10-10-10-10---10-10-10-10--

-----------------------------------------------------------------------------

--------------7-----------------------------5-------------7------------------

--------------7-----------------------------5-.-----------7-.----------------

-10-10-10-10--5--5-5-5-5--5-5-5-5--5-5-5-5--3-3--3-3-3-3--5-5--5-5-5-5-------

-----------------------------------------------------------------------------

-9-----------------------------------------12--7-----------------------------

-9-----------------------------------------12--7-----------------------------

-7--7-7-7-7-7-7-7-7-7-7-7-7-7-7-7-7-7-7-7--10--5-5-5-5-5--5-5-5-5--5-5-5-5---

-----------------------------------------------------------------------------

Guitar solo 1

4-------------5-------7---9-----------------------------------------12--7----

4-.-----------5-------7---9-----------------------------------------12--7----

2-2--2-2-2-2--3-3-3-3-5-5-7--7-7-7-7-7-7-7-7-7-7-7-7-7-7-7-7-7-7-7--10--5----

-----------------------------------------------------------------------------

-----------------------------4-------------5-------7---9---------------------

-----------------------------4-.-----------5-------7---9---------------------

-5-5-5-5--5-5-5-5--5-5-5-5---2-2--2-2-2-2--3-3-3-3-5-5-7--7-7-7-7-7-7-7-7-7--

-----------------------------------------------------------------------------

Guitar solo 2

-----------------------12--7-----------------------------4-------------5-----

-----------------------12--7-----------------------------4-.-----------5-----

-7-7-7-7-7-7-7-7-7-7---10--5--5-5-5-5--5-5-5-5--5-5-5-5--2-2--2-2-2-2--3-3-3-

-----------------------------------------------------------------------------

---7---9----------------------------------------12--7------------------------

---7---9----------------------------------------12--7------------------------

-3-5-5-7--7-7-7-7-7-7-7-7-7-7-7-7-7-7-7-7-7-7---10--5--5-5-5-5--5-5-5-5--5-5-

-----------------------------------------------------------------------------

------4-------------5-------7----9-----------------------------12------------

------4-.-----------5-------7----9-----------------------------12------------

-5-5--2-2--2-2-2-2--3-3-3-3-5-5--7--7-7-7-7--7-7-7-7--7-7-7-7--10-10-10-10-10

-----------------------------------------------------------------------------

5x

--------------------------7---------------------------5-------------7--------

--------------------------7---------------------------5-.-----------7-.------

10-10-10-10--10-10-10-10--5-5-5-5-5--5-5-5-5--5-5-5-5-3-3--3-3-3-3--5-5-5-5-5

-----------------------------------------------------------------------------

-9------------------------------12-------------------------------------------

-9------------------------------12-------------------------------------------

-7--7-7-7-7--7-7-7-7--7-7-7-7---10---10-10-10-10---10-10-10-10---10-10-10-10-

-----------------------------------------------------------------------------

->------------------------------5------------7------------9------------------

-7--7-7-7-7--7-7-7-7--7-7-7-7---5------.-.---7------.-.---9------------------

--------------------------------3--3-3-3-3---5--5-5-5-5---7--7-7-7-7--7-7-7-7

-----------------------------------------------------------------------------

-----------12----------------------------------------------5-----------------

-----------12----------------------------------------------5-----------------

-7-7-7-7---10---10-10-10-10---10-10-10-10---10-10-10-10----3--3-3-3-3--3-3-3-

-----------------------------------------------------------------------------

-------------7------------9------------------------------12------------------

-------------7------.-.---9------------------------------12------------------

3--3-3-3-3---5--5-5-5-5---7--7-7-7-7--7-7-7-7--7-7-7-7---10---10-10-10-10----

-----------------------------------------------------------------------------

-----------------------------7------------------------------5----------------

-----------------------------7------------------------------5--.-------------

-10-10-10-10---10-10-10-10---5--5-5-5-5--5-5-5-5--5-5-5-5---3--3--3-3-3-3----

-----------------------------------------------------------------------------

-7-------------9-----------------------------------------12------------------

-7-.-----------9-----------------------------------------12------------------

-5-5--5-5-5-5--7--7-7-7-7-7-7-7-7-7-7-7-7-7-7-7-7-7-7-7--10--10-10-10-10--10-

-----------------------------------------------------------------------------

------------------------7------------------------------5-------------7-------

------------------------7------------------------------5-.-----------7-.-----

-10-10-10--10-10-10-10--5--5-5-5-5--5-5-5-5--5-5-5-5---3-3--3-3-3-3--5-5--5-5

-----------------------------------------------------------------------------

Ritard.

-9-9-9-9-9----7-7-7-7-7----9-9-9-9-9----5-5-5----7-7-7----9-9-9-9-9----7-7-7-

-9-9-9-9-9----7-7-7-7-7----9-9-9-9-9----5-5-5----7-7-7----9-9-9-9-9----7-7-7-

-7-7-7-7-7----5-5-5-5-5----7-7-7-7-7----3-3-3----5-5-5----7-7-7-7-7----5-5-5-

-----------------------------------------------------------------------------

-7-7----9-9-9-9-9----5-5-5----2-2-2----9-9-9-9-9----7-7-7-7-7----9-9-9-9-9---

-7-7----9-9-9-9-9----5-5-5----2-2-2----9-9-9-9-9----7-7-7-7-7----9-9-9-9-9---

-5-5----7-7-7-7-7----3-3-3----0-0-0----7-7-7-7-7----5-5-5-5-5----7-7-7-7-7---

-----------------------------------------------------------------------------

-5-5-5----7-7-7----9-9-9-9-9----5-5-5-5-5----7-7-7-7-7----5-5-5----7-7-7----|

-5-5-5----7-7-7----9-9-9-9-9----5-5-5-5-5----7-7-7-7-7----5-5-5----7-7-7----|

-3-3-3----5-5-5----7-7-7-7-7----3-3-3-3-3----5-5-5-5-5----3-3-3----5-5-5----|

----------------------------------------------------------------------------|

-----9---9---9-----7---7---7------9---9---9------5------7-------9---9---9----

---9---9---9-----7---7---7------9---9---9------5------7-------9---9---9------

-7-------------5--------------7--------------3------5-------7----------------

-----------------------------------------------------------------------------

-----7---7---7------9---9---9-----5------2-------9---9---9-----7---7---7-----

---7---7---7------9---9---9-----5------2-------9---9---9-----7---7---7-------

-5--------------7-------------3------0-------7-------------5-----------------

-----------------------------------------------------------------------------

-----9---9---9-----5-----7-------9---9---9------5---5---5-----7---7---7-----5

---9---9---9-----5-----7-------9---9---9------5---5---5-----7---7---7-----5--

-7-------------3-----5-------7--------------3-------------5-------------3----

-----------------------------------------------------------------------------

-----7------9---9---9------7---7---7------9---9---9---9---9-----------------|

---7------9---9---9------7---7---7------9---9---9---9---9-------------------|

-5------7--------------5--------------7-------------------------------------|

----------------------------------------------------------------------------|

Outtro

(Helicopter effects)

Get this song at:  amazon.com sheetmusicplus.com

Share your thoughts

0 Comments found