Iron

Iron - Maiden - The Clansman guitar tab

Legend:

h: Hammer On

p: Pull Off

b: Bending

/: Slide

~: Vivrato

r: release

Copied By David Zhang (ChaNaniN@hotmail.com)

Janick

e||---------------------------------------15-14-12----12---14-15b-(17)-r15-14-12----12---------------

B||-17p15----15------------------------------------15----------------------------12-----15-15b-(17)~-

G||-------16----16-15-16---17-16-14-16-17------------------------------------------------------------

D||--------------------------------------------------------------------------------------------------

A||--------------------------------------------------------------------------------------------------

E||--------------------------------------------------------------------------------------------------

e||---------------------------------------------------12-14-15-15-15-17-17b-(19)-r17-15-14-15-14p12--------

B||-15b-(17)-r15-13-12-13-12-------------------------------------------------------------------------------

G||--------------------------14-12----12--14-14b-(16)-----------------------------------------------14/12~-

D||--------------------------------14----------------------------------------------------------------------

A||--------------------------------------------------------------------------------------------------------

E||--------------------------------------------------------------------------------------------------------

e||----------------------------------------------------------------------------------------

B||------------------------------------------------------------------12h13p12----12h13h15--

G||11-11h12p11p9-11h12p11p9-11h12p11p9-11h12p11p9-11h12p11p9-11h12h14---------14-----------

D||----------------------------------------------------------------------------------------

A||----------------------------------------------------------------------------------------

E||----------------------------------------------------------------------------------------

e||--15p14p12----12h14h15-17-15-17-19-17-19-20-19-20-20b-(22)-20-19-17----------19-17----

B||-----------15-------------------------------------------------------20-20-20-------20-

G||--------------------------------------------------------------------------------------

D||--------------------------------------------------------------------------------------

A||--------------------------------------------------------------------------------------

E||--------------------------------------------------------------------------------------

e||-17----------------------17-19----20-19-17-19-17----17-----------------------------------

B||----20-19-17-17-19-20-20-------------------------20----20-19-20-19-17-17-----------------

G||-------------------------------------------------------------------------19-17-19-19b21~-

D||-----------------------------------------------------------------------------------------

A||-----------------------------------------------------------------------------------------

E||-----------------------------------------------------------------------------------------

Dave

e||--------------12-15-14-12-15-14-12--------------------------------------------------------

B||-15b17-15b17~----------------------15-17b-(18)-r17-15-14----15-14-------------------------

G||---------------------------------------------------------16-------16-14-16b-(17)-16-14/12-

D||------------------------------------------------------------------------------------------

A||------------------------------------------------------------------------------------------

E||------------------------------------------------------------------------------------------

e||----------------------------------------------------------------------------------

B||----------------------------------------------------------------12----12-13-12-13-

G||----------12~----------12~----------12~-------12----12-14-12-14----14-------------

D||-14-12-14-----14-12-14-----14-12-14-----12-14----14-------------------------------

A||----------------------------------------------------------------------------------

E||----------------------------------------------------------------------------------

e||-------------------/19-19-19-17-17-17-15-15-15-14-15-17-17-15-14-----

B||-15-13-15-17-15-17-----------------------------------------------17~-

G||---------------------------------------------------------------------

D||---------------------------------------------------------------------

A||---------------------------------------------------------------------

E||---------------------------------------------------------------------

Get this song at:  amazon.com sheetmusicplus.com

Share your thoughts

0 Comments found