Iron

Iron - Maiden - Stranger In A Stranger Land guitar tab

This tab is absolute 100% right

Intro(bass and drums)

-------------------------------------------

-------------------------------------------

-------------------------------------------

-----9--8--7--4/5----9--8--7--5-----9--8--7--4/5-

---7---------------7----------5---7--------------

---0---------------0----------3---------------

------------------------------------------------

------------------------------------------

-------------------------0----------------

---------0--0----------0-0-0------------------

---0-2-3----2----0-2-3---2-2----------------------

------------------------------------------

verse

------------|---------------------------------

------------|----------------------------------

--7------7--|--%--------------------------------

--7------7--|----------------------------------

--7------7--|----------------------------------

--0---------|---------------------------------

chorus=same as fist intro riff

bridge after 3rd verse(probably repeats more times)

------------------------------------------------

----------------------------------------------

------------------------------------------------

-----4-4-5-5-7-7-------------------9-9--12-12-14---------------

-----2-2-3-3-5-5--2-2-4-4-5-5-7-7--7-7--9--10-12---------------------

------------------0-0-2-2-3-3-5-5----------------------

continue with end part

chrus then

solo

-----------------------------------------------

--------13-14----------------------------13-14---------

-----16-------14-12-10--12-14-12---------------14-12------------

---------------------------------12---12------------

------------------------------------------------

-----------------------------------------------

-------------------------------------15-17-18-17--------

-13-14------h-p------17-17--------17-------------15-----------

-------14-121412bu---------16--16-------------------14----------

------------------------------------------------

-------------------------------------------------

------------------------------------------------

h p h p h p

-----------------20-19-17191719171917-1717171717-1515151515----------------------------

-20-20--------20---------------------------------------

-------19--19----------------------------------------

------------------------------------------------

---------------------------------------------------

--------------------------------------------------

Get this song at:  amazon.com sheetmusicplus.com

Share your thoughts

0 Comments found