Iron

Iron - Maiden - Sign Of The Cross bass tab

verse 1 (second time)

||--------------------------|----------------7---------|

||o----7-9-10--9--7-9-10-9--|---7-9-10--9-10----10-9---|

||o-7-----------------------|7-------------------------|

||--0-----------------------|0-------------------------|

let low E ring let low E ring

|1.

|------------------------|----------------------------||

|---7-9-10--9--7-9-10-9--|---------------------------o||

|7-----------------------|7---7-9-10---9-10---9-10---o||

|0-----------------------|0---------------------------||

let low E ring let low E ring

|2. rit.

|----------------------------||

|----------------------------||

|7---7-9-10---9-10---9-7-----||

|0---------------------------||

let low E ring

||----------------------|-----------------|--------------------|

||o---------------------|-----------------|--------------------|

||o-7---7-7-7-7---7-7-7-|7---7--/10-9-7-5-|7---7-7-7-7---7-7-7-|

||--0-------------------|-----------------|0-------------------|

let low E ring let low E ring

|----------------|--------------------|-----------------|

|----------------|--------------------|-----------------|

|7---7--\5-3-0-3-|7---7-7-7-7---7-7-7-|7---7--/10-9-7-5-|

|----------------|0-------------------|-----------------|

let low E ring

3x

|--------------------|--------------------||

|--------------------|-------------------o||

|3---3-3-3-3---3-3-3-|5----5-5-5-5---5---o||

|--------------------|--------------------||

verse 2,3

||------------------|----------------|----------------|----------------|

||o-----------------|----------------|----------------|----------------|

||o-7-777-777-777-77|7-777-775-555-55|7-777-777-777-77|7-777-775-555-55|

||------------------|----------------|----------------|----------------|

2x

|----------------|----------------|----------------|-------------------||

|----------------|----------------|----------------|------------------o||

|2-222-223-333-33|5-555-553-333-33|2-222-223-333-33|-5-555-553-335-55-o||

|----------------|----------------|----------------|-------------------||

verse 4

|----------------|----------------|----------------|----------------|

|----------------|----------------|----------------|----------------|

|7-777-777-777-77|7-777-777-777-77|7-777-777-777-77|7-777-777-777-77|

|----------------|----------------|----------------|----------------|

|----------------|----------------|----------------|----------------||

|----------------|----------------|----------------|----------------||

|3-333-333-333-33|3-333-333-333-33|7-777-777-777-77|7-777-777-777-77||

|----------------|----------------|----------------|----------------||

chorus

|----------------|----------------|----------------|----------------|

|----------------|----------------|----------------|----------------|

|3-333-333-333-33|----------------|5-555-555-555-55|0-000-000-000-00|

|----------------|3-333-333-333-33|----------------|----------------|

|----------------|----------------|----------------|----------------||

|----------------|----------------|----------------|----------------||

|3-333-333-333-33|----------------|7-777-777-777-77|7-777-777-777-77||

|----------------|3-333-333-333-33|----------------|----------------||

verse 5

|----------------|----------------|----------------|----------------|

|----------------|----------------|----------------|----------------|

|7-777-777-777-77|7-777-777-777-77|7-777-777-777-77|7-777-777-777-77|

|----------------|----------------|----------------|----------------|

|----------------|----------------|----------------|----------------||

|----------------|----------------|----------------|----------------||

|3-333-333-333-33|3-333-333-333-33|7-777-777-777-77|7-777-777-777-77||

|----------------|----------------|----------------|----------------||

chorus

|----------------|----------------|----------------|----------------|

|----------------|----------------|----------------|----------------|

|3-333-333-333-33|----------------|5-555-555-555-55|0-000-000-000-00|

|----------------|3-333-333-333-33|----------------|----------------|

|----------------|----------------|----------------|----------------||

|----------------|----------------|----------------|----------------||

|3-333-333-333-33|----------------|7-777-777-777-77|7-777-777-777-77||

|----------------|3-333-333-333-33|----------------|----------------||

interlude

|--------------------------------|----------------------------------|

|--9-9-9-7-9-9-9---9-9-9-7-9-9-9-|--9-9-9-7-9-9-9-10-10-9-9-7-7-9-9-|

|7---------------7---------------|7---------------------------------|

|--------------------------------|----------------------------------|

|--------------------------------|----------------------------------|

|--9-9-9-7-9-9-9---9-9-9-7-9-9-9-|--9-9-9-7-9-9-9-10-10-9-9-7-7-9-9-|

|7---------------7---------------|7---------------------------------|

|--------------------------------|----------------------------------|

|--------------------------------|--------------------------------|

|--7-7-7-5-7-7-7---7-7-7-5-7-7-7-|--7-7-7-5-7-7-7-8-8-7-7-5-5-7-7-|

|5---------------5---------------|5-------------------------------|

|--------------------------------|--------------------------------|

|--------------------------------|----------------------------------||

|--9-9-9-7-9-9-9---9-9-9-7-9-9-9-|--9-9-9-7-9-9-9-10-10-9-9-7-7-9-9-||

|7---------------7---------------|7---------------------------------||

|--------------------------------|----------------------------------||

|----------------|----------------|----------------|----------------|

|----------------|----------------|----------------|----------------|

|7-777-777-777-77|7-777-777-775-55|3-333-333-333-33|3-333-333-335-55|

|----------------|----------------|----------------|----------------|

|----------------|----------------|----------------|----------------|

|----------------|----------------|----------------|----------------|

|7-777-777-777-77|7-777-777-775-55|3-333-333-333-33|3-333-333-332-22|

|----------------|----------------|----------------|----------------|

|----------------|----------------|----------------|----------------|--|--||

|----------------|----------------|----------------|----------------|--|--||

|0-000-000-000-00|0-000-003-335-55|7-777-777-777-77|7-777-777-777-77|7-|--||

|----------------|----------------|----------------|----------------|--|--||

|----------------|----------------|----------------|----------------|

|--9---9-8-------|--9---9---8-7---|--9---9-8-------|--9---9---8-7---|

|7---7-----------|7---7---7-------|7---7-----------|7---7---7-------|

|----------------|----------------|----------------|----------------|

|----------------|----------------|----------------|----------------||

|--7---7-6-------|--7---7---6-5---|--9---9-8-------|--9---9---8-7---||

|5---5-----------|5---5---5-------|7---7-----------|7---7---7-------||

|----------------|----------------|----------------|----------------||

||------------------------|--------------------|------------------------|

||o--9-98------------9-98-|7-------------------|-9-98-------------------|

||o-7-7-------------7-7--7|--------------------|7-7---------------------|

||--------000-000-00------|--000-000-000-000-00|------000-000-000-000-00|

|--------------------------|----------------------|

|-9-98-7-------------------|-7-76------------7-76-|

|7-7--7--------------------|5-5-------------5-5--5|

|--------000-000-000-000-00|------000-000-00------|

2x

|--------------------|------------------------|---------------------------||

|5-------------------|-9-98-------------------|-9-98-7-------------------o||

|--------------------|7-7---------------------|7-7--7--------------------o||

|--000-000-000-000-00|------000-000-000-000-00|--------000-000-000-000-00-||

||---------------------------|-------------------------|

||o--9-----10-----7-----9----|-9-----10-----7-----9----|

||o-7-7-7-7--7-7-7-7-7-7-7-7-|7-7-7-7--7-7-7-7-7-7-7-7-|

||---------------------------|-------------------------|

|1.

|------------------------|-------------------------||

|-7-----8-----5-----7----|-7-----8-----5-----7----o||

|5-5-5-5-5-5-5-5-5-5-5-8-|7-5-5-5-5-5-5-5-5-5-5-5-o||

|------------------------|-------------------------||

|2. 4x

|------------------------|||-------------------------------------------||

|-7-----8-----5-----7----|||o---9999--10101010--7777--999977----------o||

|7-5-5-5-5-5-5-5-5-5-5-8-|||o-7-----7---------7-----7-------1010997---o||

|------------------------|||-------------------------------------------||

This next part I haven't completely tabbed out yet. There are some fills

that I haven't done yet. Here are the basic chord progressions.

||------------------|----------------|-----------------|----------------|

||o-----------------|----------------|-----------------|----------------|

||o-7---7-7---7-7-7-|5---5-5---5-5-5-|3---3-3----3-3-3-|3---3-3---3-3-3-|

||------------------|----------------|-----------------|----------------|

2x

|-----------------|----------------|----------------|-----------------||

|-----------------|----------------|----------------|----------------o||

|7---7-7----7-7-7-|5---5-5---5-5-5-|0---0-0---0-0-0-|0---0-0---0-0-0-o||

|-----------------|----------------|----------------|-----------------||

solo I

||------------------|----------------|----------------|----------------|

||o-----------------|----------------|----------------|----------------|

||o-7---7-7---7-7-7-|5---5-5---5-5-5-|3---3-3---3-3-3-|----------------|

||------------------|----------------|----------------|3---3-3---3-3-3-|

2x

|----------------|----------------|----------------|-----------------||

|----------------|----------------|----------------|----------------o||

|7---7-7---7-7-7-|5---5-5---5-5-5-|0---0-0---0-0-0-|3---3-3---3-3-3-o||

|----------------|----------------|----------------|-----------------||

solo II

||------------------|----------------|---------------|----------------|

||o-5---5-5---5-5-5-|3---3-3---3-3-3-|---------------|----------------|

||o-----------------|----------------|5---5-5---5-5-5|3---3-3---3-3-3-|

||------------------|----------------|---------------|----------------|

2x

|----------------|----------------|----------------|-----------------||

|5---5-5---5-5-5-|3---3-3---3-3-3-|0---0-0---0-0-0-|3---3-3---3-3-3-o||

|----------------|----------------|----------------|----------------o||

|----------------|----------------|----------------|-----------------||

||------------------|----------------|-----------------|----------------|

||o-----------------|----------------|-----------------|----------------|

||o-7---7-7---7-7-7-|5---5-5---5-5-5-|3---3-3----3-3-3-|3---3-3---3-3-3-|

||------------------|----------------|-----------------|----------------|

2x

|-----------------|----------------|----------------|-----------------||

|-----------------|----------------|----------------|----------------o||

|7---7-7----7-7-7-|5---5-5---5-5-5-|0---0-0---0-0-0-|0---0-0---0-0-0-o||

|-----------------|----------------|----------------|-----------------||

6th time rit. 6x

||------------------|----------------|----------------|------------------||

||o-----------------|----------------|----------------|-----------------o||

||o-7-777-777-777-77|3-333-333-333-33|----------------|5-555-553-335-55-o||

||------------------|----------------|3-333-333-333-33|------------------||

|----------------|----------------|----------------|----------------|

|----------------|----------------|----------------|----------------|

|7-7-7-7-7-7-7-7-|3-3-3-3-3-3-3-3-|----------------|5-5-5-5-5-5-5-5-|

|----------------|----------------|3-3-3-3-3-3-3-3-|----------------|

|----------------|----5---5---5---|----------------|----7---7-------|

|----------------|--5---5---5---5-|----5---5---5---|--7---7---7-----|

|0-0-0-0-0-0-0-0-|3---------------|--5---5---5---5-|5-----------5---|

|----------------|----------------|3---------------|--------------5-|

rit.

|----------------|----5---5---5---|----------------|---------------||

|----7---7---7---|--5---5---5---5-|----5---5---5---|----7----------||

|--7---7---7-----|3---------------|--5---5---5---5-|--7---7--------||

|5---------------|----------------|3---------------|5--------------||

verse 6

|------------------------|----------------7---------|

|---7-9-10--9--7-9-10-9--|---7-9-10--9-10----10-9---|

|7-----------------------|7-------------------------|

|0-----------------------|0-------------------------|

let low E ring let low E ring

rit.

|------------------------|----------------------------||

|---7-9-10--9--7-9-10-9--|----------------------------||

|7-----------------------|7---7-9-10---9-10---9-7-----||

|0-----------------------|0---------------------------||

let low E ring let low E ring

Get this song at:  amazon.com sheetmusicplus.com

Share your thoughts

0 Comments found