Iron

Iron - Maiden - Sanctuary guitar tab

INTRO/MAIN RIFF

Gtr. I--riff a

D5

|---------------------------------------------------------|

|---------------------------------------------------------|

|-2---2-------2-2---2-------2-2---2-------2-2---2---------|

|-0---0-------0-0---0-------0-0---0-------0-0---0---------|

|---3----3p0------3----3p0------3----3p0------3----3p0----|

|---------------------------------------------------------|

then guitar II doubles gtr. I

1st verse w/ riff a

PRE-CHORUS

gtr. I and II

F5 G5 D5

|----------------------------|----------------------------------|

|-----------------0-----0----|----------------------------------|

|-----------------0-----0----|-------2-2---2-------2-2---2------|

|-3-----3--------------------|-------0-0---0-------0-0---0------|

|-3-----3--------------------|-----------3----3p0------3----3p0-|

|-1-----1--------------------|----------------------------------|

I know you'd have gone insane if you saw what i saw

F5 G5 A

|----------------------------|----------------------------------|

|-----------------0-----0----|---2------------------------------|

|-----------------0-----0----|---2------------------------------|

|-3-----3--------------------|---2------------------------------|

|-3-----3--------------------|---0------------------------------|

|-1-----1--------------------|----------------------------------|

But now i've got to look for Sanctu'ry from the law________

Then comes verse 2 again with riff a

Get this song at:  amazon.com sheetmusicplus.com

Share your thoughts

0 Comments found