Iron

Iron - Maiden - Run To The Hills bass tab

Intro Last time

------------------------|---------|---------

------------------------|---------|---------

-7-7-5---5-5-7---3-3-5--|---------|-----5---

------------------------|-3-3-5---|-3-3-----

Verse

------------------------------------------------

------------------------------------------------

5--5-5-5-5-5-5-5-5-3--3-3-3-3-3-3-3-3--2--3--2--

------------------------------------------------

Pre chorus

------------------------------------------------

------------------------------------------------

-----------------3-3-3-3-3---------5-5-5-5-5-5--

-5-5-5-5-5-5-5-5-----------1-1-1-1--------------

Chorus Not last time

-----------------------------------------------------------------|--------------

-----------------------------------------------------------------|--------------

----------------------------------3-3-3-3-3-3-3------------------|--------------

--3-3-3-3-3-3-3--1-1-1-1-1-1-1-1-----------------3-3-3-3-3-3-3-3-|-0--1--2------

Bridge

-----------------------------------------------------------------

-----------------------------------------------------------------

-7-7-7-7-7-7--8-9--9-9-9-9-9-9-----------------------------------

--------------------------------8-8-8-8-8-8-8-8--8-7-8-7-8-7-5-3-

Bridge Riff 2

-----------------------------------------------------------

-----------------------------------------------------------

-7-7-7--7-7--5-5-5--5-5--10-10-10--10-10--12-12-12--12-12--

-----------------------------------------------------------

Bridge Riff 2b

-----------------------------------------------

-----------------------------------------------

-14--14-14--17--17-17--19--19-19--21--21-21----

-----------------------------------------------

Ending

-----------------------------------------------------------------------------------

-----------------------------------------------------------------------------------

-----------------------------------3----2------------------------------------------

--3-3-3-3-3-3-3--1-1-1-1-1-1-1-1------------3333333333333333333333333333333333333--

Get this song at:  amazon.com sheetmusicplus.com

Share your thoughts

0 Comments found