Iron

Iron - Maiden - Revelations bass tab

Revelations ( Dickinson )

( From the album " Piece of Mind " )

-----------------------------------------------------------------------------

---------55-7-5-2--------------555-7-5-2--------------55-7-5-2---------------

-------------------3-5--------------------3-5-------------------3-5----------

-3-5-3-5----------------3-5-3-5----------------3-5-3-5---------------3-5-3-5-

-----------------------------------------------------------------------------

-555-7-5-2-------------------------------------------------------------------

-----------3--5---------------------------------------------------------3----

------------------5-5--1-1--3-3--5-5-5-3---5-5--1-1--3-3--5-5-5-3---5-5---1-1

Lyrics enter

-----------------------------------------------------------------------------

-----------------------------------------------------------------------------

3------3---------------3-----3------3----------------3------3-----3----------

---3-3---5-5-5-3---5-5---1-1----3-3----5-5-5-3---5-5----1-1---3-3----5-5-5-3-

-----------------------------------------------------------------------------

-----------------------------------------------------.-----------------------

-----3------3-----3------------0--3-5-8---7-8-7-3--3h5-3-2------0--0-3-5-8-8-

-5-5----1-1---3-3----5-5-5-3-------------------------------3-0---------------

( . = staccatto )

( h = hammer on )

-----------------------------------------------------------------------------

---------------.---------------------------------------.---------------------

-10-12-10--15h17--15-14-10-7---0--0-3-5-8-7h8-7-3--5h3-2-------0--3-5-8-8-10-

----------------------------------------------------------3-0----------------

-----------------------------------------------------------------------------

-----------------------------------------------------------------------------

-12-10--15-17-15-14\-------.------.-----5-----------.-------.-----5----------

-----------------------5h3-5--5h3-5---3----1-3--5h3-5---5h3-5---3----1-3-----

( \ = slide down )

-----------------------------------------------------------------------------

-----------------------------------------------------------------------------

----------------------------------------5------------------------------------

-5-3-5--5--5---5-3-5-5-5-5-5--5-5-3-3-3---1--3--5-3-5-5-5-5-5--5-3-5-5-5-5-5-

-----------------------------------------------------------------------------

-----------------------------------------------------------------------------

-------5-----------------------------------------5---------------------------

-5-5-3----1---3--5-3-5-5-5-5-5--5-3-5-5-5-5-5--3---1--3--5-3-5-5-5-5-5--5-3-5

-----------------------------------------------------------------------------

-----------------------------------------------------------------------------

-----------------5-------0--3-5-8--7-8-7-3--3-5-3-2-----0--3-5-8--8-10-12-10-

-5-5-5-5-5-5--3----1--3-----------------------------3-0----------------------

-----------------------------------------------------------------------------

-----.---------------------------------------.-------------------------------

-15/17-15--14\10--7---0--3-5-8--7-8-7-3--5h3-2-------0--0-3-5-8--8-10-12-10--

------------------------------------------------3-0--------------------------

-----------------------------------------------------------------------------

-----.-----------------------------------------------------------------------

-15h17-15-14-10-7---0--3-5-8--7-8-7-3--3-5-3-2--------0--0-3-5-8--8-10-12-10-

-------------------------------------------------3-0-------------------------

-----------------------------------------------------------------------------

-----------------------------------------------------------------------------

-15-17-15--14\7-7-----------------------3--5--5-3-5-3------------------------

-------------------5--5-5-5-3--5--5-5-5---------------5-3--0-0--3-3--5--5-5-5

-----------------------------------------------------------------------------

--------------------------------------------------------------.-.------------

-------------3--5---5-5-3----------------0--3-5-8--7-8-7-3--5-3-2-------0----

-3--5--5-5-5--------------5-3--0-0--3-3----------------------------3-0-------

-----------------------------------------------------------------------------

-----------------------------------------------------------------------------

-0-3-5-8--7-8-7-3--3-5-3-2--------0--0-3-5-8--10-12-10--15-17-15-14--10-7--0-

-----------------------------3-0---------------------------------------------

-----------------------------------------------------------------------------

-------------------.---------------------------------------------------------

-3-5-8--7-8-7-3--5-3-2---------0--0-3-5-8--8-10-12-10--15--17-15-14\10-7-----

-------------------------3-0-----------------------------------------------5-

-----------------------------------------------------------------------------

-----------------------------------------------------------------------------

-------------------3--5--5-3-5-3-------------------------------------3--5--5-

-5-5-5-3--5--5-5-5---------------5-3--0-0--3-3--5--5-5-5-3--5--5-5-5---------

-----------------------------------------------------------------------------

-----------------------------------------------------------------------------

-3-5h3-----------------------------------------5---------------------------5-

-------5h3--0-0--3-3--5----5-3-5---5-3-5---3------1--3---5-3-5---5-3-5---3---

-----------------------------------------------------------------------------

-----------------------------------------------------------------------------

----------------------------------------5------------------------------------

-1-3--5-3-5--5--5--5-3-5-5-5-5-5--5-5-3---1-3--5-3-5-5-5-5-5--5-3-5-5-5-5-5--

-----------------------------------------------------------------------------

-------------------------------5-3-------------------------------.-----------

--------5-----------5-5-5-5-5------5-5-5-5-5--0-0-0-0-0-0--5-5-5-3--2-2--0-0-

-5-5--3---1--3--5-3----------------------------------------------------------

-----------------------------------------------------------------------------

--------------------5-3------------------------.-----------------------------

-0-0--5-3-5-0-0-0-0-----5-0-0-0-0-0-0-0--5-5-5-3--2-2--0-0-0--5-3-5--0-0-0-0-

-----------------------------------------------------------------------------

-----------------------------------------------------------------------------

-5-3------------------------.----------------------------5-3-----------------

-----5-0-0-0-0-0-0-0--5-5-5-3--2-2--0-0-0--5-3-5-0-0-0-0-----5-0-0-0-0-0-0-0-

-----------------------------------------------------------------------------

-----------------------------------------------------------------------------

-------.----------------------------5-3-------------------------.------------

-5-5-5-3--2-2--0-0-0--5-3-5-0-0-0-0------5-0-0-0-0-0-0-0--5-5-5-3--2-2--0-0-0

-----------------------------------------------------------------------------

-----------------------------------------------------------------------------

---------------5-3------------------------.----------------------------5-3---

-5-3-5-0-0-0-0-----5-0-0-0-0-0-0-0--5-5-5-3--2-2--0-0-0--5-3-5-0-0-0-0-----5-

-----------------------------------------------------------------------------

-----------------------------------------------------------------------------

-----------------------.----------------------------5-3----------------------

-0-0-0-0-0-0-0---5-5-5-3--2-2--0-0-0--5-3-5-0-0-0-0-----5-0-0-0-0-0-0-0-5-5-5

-----------------------------------------------------------------------------

-----------------------------------------------------------------------------

-.---------------------------------------------------------------------------

-3--2-2--0-0-0--0-0-7-5-7-0-0-0-3-5-3-5-0-0-0-2-3-2-3-0-0-0-3-2-0-0-0-5-7-5-7

-----------------------------------------------------------------------------

-----------------------------------------------------------------------------

---------------------3-5-7-5-7-----5-3-0-------------------------------------

-0-0-0-3-5-3-5-0-0-0-----------0-0-------0--0-0-0-0-5-7-5-7-0-0-0-3-5-3-5-0-0

-----------------------------------------------------------------------------

-----------------------------------------------------------------------------

-----------------------------------------------3-3-3-5-5-5-5-7-5-3-----------

-0-0-5-3-0--0-0-0-0-3-5-3-5-0-0-0-5-7-5-7-0--0---------------------0---------

----------------------------------------------------------------------5-3-5--

-----------------------------------------------------------------------------

-----------------------------------------------------------------------------

-----------------------------5--------------------------------------------5--

-5-5-5-5--5-3-5-5-5-5-5-5--3---1-3--5-3-5-5-5-5-5--5-3-5-5-5-5-5-5-5-5--3---1

-----------------------------------------------------------------------------

-----------------------------------------------------------------------------

----------------------------------------5------------------------------------

-3--5-3-5-5-5-5-5--5-3-5-5-5-5-5-5-5--3---1-3--5-3-5-5-5-5-5--5-3-5-5-5-5-5-5

-----------------------------------------------------------------------------

-----------------------------------------------------------------------------

---------5-------------------------------------------------------------------

-5-5--3-----1---3---5-5---1-1---3-3---5-5-5-3---5-5---1-1---3-3----5-5-5-3---

-----------------------------------------------------------------------------

-----------------------------------------------------------------------------

------3------3------3-----------------3--------3-------5---------------3-----

-5-5-----1-1----3-3------5-5-5-3--5-5-----1-1------3-3----5-5-5-3--5-5----1-1

-----------------------------------------------------------------------------

-----------------------------------------------------------------------------

-3------3---------------3-------3------3----0--3-5-8--7-8-7-3---3-5-3-2-0----

----3-3----5-5-5-3--5-5----1-1-----3-3-------------------------------------0-

--------------------------------------------------2------------||

---------------------------------------------------------------||

-0--0-3-5-8---8-10-12-10---15-17-15-14\10-7---0--------0-------||

-----------------------------------------------------0---------||

Ritard.

Get this song at:  amazon.com sheetmusicplus.com

Share your thoughts

0 Comments found