Iron

Iron - Maiden - Remember Tomorrow bass tab

Tab explanations

-----------------------------------------------------

> Accent | / Slide up

. Staccatto | \ Slide down

h Hammer-on/ pull off | : Harmonic | ~ slight bend

-----------------------------------------------------

Remember Tomorrow ( Harris / Di'Anno )

( From the album " Iron Maiden " )

|-----9-----9---------9-----9---------10------10-10--------9----9--------9---

|.--9-----9---------9-----9----9---10------10-------10---9----9----9---9----9

|.7-----7-----7-7-7-----7----7---8-------8-------------7----7----7---7----7--

|----------------------------------------------------------------------------

-9--------9----9---------10-----10----------9----9------|

--------9----9----9---10-----10-----10----9----9-----9-.|

--7-7-7----7----7---8------8------8-----7----7-----7---.|

--------------------------------------------------------|

Play 3 times. On the second time, the drums and lyrics come in.

-----------------------------------------------------------------------------

-----------------------------------------------------------------------------

--------2--2-2---------------3--3-3-3-3--2----------------2--2-2-------------

-0--0-0---------3-2-3--3--3-----------------3--2---0--0-0---------3-2-3--3--3

-----------------------------------------------------------------------------

-----------------------------------------------------------------------------

-3--3-3-3-3--2---------------2--2-2-------------3--3-3-3-3--2----------------

---------------3--2---0--0-0--------3-2-3--3--3---------------3--2---0--0-0--

---------------------------------9-----9----------9-----9------------9-------

-------------------------------9-----9----------9-----9------9-----9---------

-2--2-2--------------3-------7-----7-----7-7--7-----7------7-----7-----------

---------3-2-3--3--3---------------------------------------------------------

.

-------9-----------9---------9-----.---------|-------9-----9--------9-----9--

-----9-----------9------9----------9---------|.----9-----9--------9-----9----

---7------7-7--7------7----------------------|.--7-----7----7-7-7-----7------

---------------------------------------------|-------------------------------

----------10-----10--10--------9----9---------9-----9---------9-----9--------

---9---10-----10--------10---9----9-----9---9-----9---------9-----9-----9----

-7---8------8--------------7----7-----7---7-----7-----7-7-7-----7-----7------

-----------------------------------------------------------------------------

------10-----10----------9----9-----|----------------------------------------

---10-----10------10---9----9-----9.|----------------------------------------

-8------8-------8----7----7-----7--.|--------2--2-2---------------3--3-3-3-3-

------------------------------------|-0--0-0---------3-2-3--3--3-------------

-----------------------------------------------------------------------------

-----------------------------------------------------------------------------

--2----------------2--2-2--------------3--3-3-3-3--2-----------------2--2-2--

----3--2---0--0-0---------3-2-3--3--3-----------------3--2---0--0-0----------

-----------------------------------------------------------------------------

-----------------------------------------------------------------------------

-------------3--3-3-3-3--2-----------------2--2-2--------------3--3-3-3------

-3-2-3--3--3---------------3--2---0--0-0-----------3-2-3--3--3---------------

-----------------------------------------------------------------------------

-----------------------------------------------------------------------------

-5-5--5-5-5--5-5-5---5--3-3---5-5--5-5-5--5--5-3-3-3-3----5-5--5-5-5--5-5-5--

-----------------------------------------------------------------------------

Solo part

-----------------------------------------------------------------------------

-----------------------------------------------------------------------------

-5--3-3---5-5--5-5-5--5--5-3-3-3-3----5-5--5-5-5--5-5-5---5--3-3---5-5--5-5-5

-----------------------------------------------------------------------------

-----------------------------------------------------------------------|-----

-----------------------------------------------------------------------|.----

-5--5-3-3-3-3----5-5--5-5-5--5-5-5---5--3-3---5-5--5-5-5--5--5-3-3-3-3-|.-7-7

-----------------------------------------------------------------------|-----

-----------------------------------------------------------------------------

-----------------------------------------------------------------------------

--7-7-7--7-7-7--7--10-10----7-7--7-7-7--7-7-7-9-10-12----7-7--7-7-7--7-7-7---

-----------------------------------------------------------------------------

-----------------------------------------------------------------------------

-----------------------------.---.-------------------------------------------

-7--10-10----7-7--7-7-7--7--12--12--12-10-9-5-----7-7--7-7-7--7-7-7--7--10---

-----------------------------------------------------------------------------

-----------------------------------------------------------------------------

-----------------------------------------------------------------------------

-10----7-7--7-7-7--7-7-7-9-10-12----7-7--7-7-7--7-7-7--7--10--10---7-7--7-7-7

-----------------------------------------------------------------------------

-----------------------------------------------------------------------------

-----.---.-------------------------------------------------------------------

-7--12--12--12-10-9-5----0-0--0-0-0--0-0-0-0-0-0--5-5--5-5-5--5-5-5-5-5-5----

-----------------------------------------------------------------------------

-----------------------------------------------------------------------------

-----------------------------------------------------------------------------

-2-2--2-2-2--2-2-2-2-2-2---3-3--3-3-3--3-3-3-3-3-3---3-3--3-3-3--3-3-3-3-3-3-

-----------------------------------------------------------------------------

----------------------------------------------------------------------------|

---------------------------------------------------------------------------.|

-5-5--5-5-5--5-5-5-5-5-5---2-2--2-2-2--2-2-2-2-2-2---3-3-3-3-3--5-5-5-5-5--.|

----------------------------------------------------------------------------|

|-----9----9---------9-----9---------10-----10--10--------9----9-------9----9

|.--9----9---------9-----9----9---10-----10--------10---9----9---9---9----9--

|.7----7-----7-7-7-----7----7---8------8--------------7----7---7---7----7----

|----------------------------------------------------------------------------

---------9-----9----------10-----10----------9----9-----|--------------------

-------9-----9-----9---10-----10------10---9----9----9-.|.-------------------

-7-7-7-----7-----7---8------8-------8----7----7----7---.|.--------2--2-2-----

--------------------------------------------------------|-0--0-0----------3-2

Play three times

-----------------------------------------------------------------------------

-----------------------------------------------------------------------------

---------------3--3-3-3-3--2----------------2--2-2---------------3--3-3-3-3--

---3-2-3--3--3-----------------3--2---0--0-0---------3-2-3--3--3-------------

-----------------------------------------------------------------------------

-----------------------------------------------------------------------------

--2---------------2--2-2-------------3--3-3-3-3--2----------------2--2-2-----

----3--2---0--0-0--------3-2-3--3--3---------------3--2---0--0-0----------3-2

___________________ _____________________________________________

1. | 2.

------------------------------|----------------------------------------------

-----------------------------.|----------------------------------------------

---------3--3-3-3-3--2-------.|-3-------------0-1-2-3--17-18-19-19-19-19-17--

-3--3--3---------------3-2----|----0-00000000------------------------------17

_____________________________________________________________________________

----------------------------------------------------------------------------||

------------------------------------------------------------------------2\--||

-19-17----19--17---19-17----19-17-------------------------------------------||

-------17-------17-------17-------17---0-0-0-0-0-0-0-0-0---0--0--0--0--0----||

Repeat

Get this song at:  amazon.com sheetmusicplus.com

Share your thoughts

0 Comments found