Iron

Iron - Maiden - Rainmaker guitar tab

|---------------10----------------------------

|------------------------13-------11----------

|---------10-14----14-10----10-------12-14-10-

|---12-14----------------------12-------------

|---------------------------------------------

|---------------------------------------------

|---------------10----------------------------

|------------------------13-------11----------

|---------10-14----14-10----10-------12-14-10-

|---12-14----------------------12-------------

|---------------------------------------------

|---------------------------------------------

|---------------10----------------------------

|------------------------13-------11----------

|---------10-14----14-10----10-------12-14-10-

|---12-14----------------------12-------------

|---------------------------------------------

|---------------------------------------------

|---------------10--------------------10----------

|-------------------------------------------------

|---------10-14----14-10--------10-14----14-10----

|---12-14-----------------12-14----------------12-

|-------------------------------------------------

|-------------------------------------------------

Get this song at:  amazon.com sheetmusicplus.com

Share your thoughts

0 Comments found