Iron

Iron - Maiden - Prowler guitar tab

INTRO

The very beginning (gtr. I) is and E5 chord:

---|

---|

-9-|

-7-|

-7-|

---|play that chord in rhythm for a few bars

then guitar II comes in (riff a):

*w/ wah wah

|--------------------|-------|----------------------------------|

|-8--7--8^(10)--7--8-|--.----|-8--7--8^(10)--7--8---------------|

|--------------------|---/---|---------------------7h9p7h9trill-|

|--------------------|----.--|----------------------------------|

|--------------------|-------|----------------------------------|

|--------------------|-------|----------------------------------|

^

here gtr. I drops to

a D5 chord (2 frets

down from the E5)

*whole intro played twice*

VERSE

gtr. I plays intro chords

gtr. II plays riff a

verse fill I:

gtr. I

|-----------------------|

|-----------------------|

|-----------------------|

|-----------------------|

|-7--5-----5------------|

|-------7-----7--5--3--|

gtr. II

|-----------------------|

|-----------------------|

|-9--7-----7------------|

|-------9-----9--7--5--|

|-----------------------|

|-----------------------|

PRE-CHORUS

|---------------------------------------------------------------|

|---------------------------------------------------------------|

|-10------------------------------9----------9------------------|

|-10------------------------------9----5--7--9------------------|

|--8-continue-w/-this-F-in-rhythm-7----5--7--7------------------|

|--------------------------------------3--5---------------------|

well you see me crawling........wide what you seein' girl?

|----------------|

|-16p14-12-14-12-|

|----------------|

|----------------|

|----------------|

|----------------|

*play pre-chorus twice*

CHORUS gtr. I:

|-----------------|-------------------

|-----------------|------------------

|-5---------------|-7-------------------

|-5---------------|-7-------------------

|-3---------------|-5----------------------

|-----------------|-----------------------

got me feeling my -self and reelin around

gtr. II

|-----------------|-----------------------|

|-8-7-------------|-8-7-------------------|

|-----9-7-7979tril|-----9-7-7979trill-----|

|-----------------|-----------------------|

|-----------------|-----------------------|

|-----------------|-----------------------|

then it goes back to riff a

Get this song at:  amazon.com sheetmusicplus.com

Share your thoughts

0 Comments found