Iron

Iron - Maiden - Number of the Beast guitar tab

Gtr I

PM------------------------------------------------------|

H E E E E E E E E E E E E E E E E E E E E E E E E E E E E

|----------------------|-----------------|-------------------------||

|----------------------|-----------------|-------------------------||

|----------------------|-----------------|-------------------------||

|--------------4---5---|-7-----7-----7---|---7-----7-------4---5---||

|--------5-5-5---5---5-|-5-5-5-5-5-5-5-5-|-5-5-5-5-5-5-5-5---5---5-||

|----------------------|-----------------|-------------------------||

Verse 1

4/4 6/4

PM-----------------------------------------

E E E E E E E E E E E E E E E E E E E E

||------------------|-------------------------|

||o-----------------|-------------------------|

||------------------|-------------------------|

||--7-----7-----7---|---7-----7-------4---5---|

||o-5-5-5-5-5-5-5-5-|-5-5-5-5-5-5-5-5---5---5-|

||------------------|-------------------------|

|-Rhy Fig 1

4/4 6/4

-----------------------------------------|

E E E E E E E E E E E E E E E E E E E E

|-----------------|--------------------------|

|-----------------|--------------------------|

|-----------------|--------------------------|

|-7-----7-----7---|---7-----7-------2---3----|

|-5-5-5-5-5-5-5-5-|-5-5-5-5-5-3-3-3---3---3--|

|-----------------|--------------------------|

4/4 6/4

PM-----------------------------------------

E E E E E E E E E E E E E E E E E E E E

|-----------------|-------------------------|

|-----------------|-------------------------|

|-----------------|-------------------------|

|-5-----5-----5---|---5-----5-------2---3---|

|-3-3-3-3-3-3-3-3-|-3-3-3-3-3-3-3-3---3---3-|

|-----------------|-------------------------|

4/4 6/4

-----------------------------------------|

E E E E E E E E E E E E E E E E E E E E

|-----------------|----------------------------||

|-----------------|---------------------------o||

|-----------------|----------------------------||

|-7-----7-----7---|---7-----7-------4---5------||

|-5-5-5-5-5-5-5-5-|-5-5-5-5-5-5-5-5---5---5---o||

|-----------------|----------------------------||

end Rhy Fig 1-|

w/Rhy Fig 1

4/4 6/4

Gtr II

PM-----------------------------------------

E E E E E E E E E E E E E E E E E E E E

||------------------|-------------------------|

||o-----------------|-------------------------|

||------------------|-------------------------|

||--7-----7-----7---|---7-----7---------------|

||o-5-5-5-5-5-5-5-5-|-5-5-5-5-5-5-5-5-5-5-5-5-|

||------------------|-------------------------|

4/4 6/4

-----------------------------------------|

E E E E E E E E E E E E E E E E E E E E

|-----------------|--------------------------|

|-----------------|--------------------------|

|-----------------|--------------------------|

|-7-----7-----7---|---7-----7----------------|

|-5-5-5-5-5-5-5-5-|-5-5-5-5-5-3-3-3-3-3-3-3--|

|-----------------|--------------------------|

4/4 6/4

PM-----------------------------------------

E E E E E E E E E E E E E E E E E E E E

|-----------------|-------------------------|

|-----------------|-------------------------|

|-----------------|-------------------------|

|-5-----5-----5---|---5-----5---------------|

|-3-3-3-3-3-3-3-3-|-3-3-3-3-3-3-3-3-3-3-3-3-|

|-----------------|-------------------------|

1.

4/4 6/4

-----------------------------------------|

E E E E E E E E E E E E E E E E E E E E

|-----------------|----------------------------||

|-----------------|---------------------------o||

|-----------------|----------------------------||

|-7-----7-----7---|---7-----7------------------||

|-5-5-5-5-5-5-5-5-|-5-5-5-5-5-5-5-5-5-5-5-5---o||

|-----------------|----------------------------||

2.

6/4 4/4

Gtr III

H E E E E Q E E +W

|------------------------|------------|

|---------3-3-3-3-3----3-|-(3)--------|

|---------2-2-2-2-2----2-|-(2)--------|

|---------0-0-0-0-0----0-|-(0)--------|

|------------------------|------------|

|------------------------|------------|

|

| Gtrs I, II

| PM----|

| E E E E E E E E Q E E +W

|------------------------|------------|

|------------------------|------------|

|---------7-7-7-7-7----7-|-(7)--------|

|---7-----7-7-7-7-7----7-|-(7)--------|

|-5-5-5-5-5-5-5-5-5----5-|-(5)--------|

|------------------------|------------|

|-Rhy Fig 3

3/4 4/4

+W +H Q W +W

|------------|--------------|----------|--------|

|-(3)--------|-(3)----------|-3--------|-(3)----|

|-(2)--------|-(2)----------|-2--------|-(2)----|

|-(0)--------|-(0)----------|-0--------|-(0)----|

|------------|--------------|----------|--------|

|------------|--------------|----------|--------|

|

| +W E E E E Q W +W

|------------|--------------|----------|--------|

|------------|--------------|----------|--------|

|-(7)--------|--7--7-7-7----|-7--------|-(7)----|

|-(7)--------|--7--7-7-7----|-7--------|-(7)----|

|-(5)--------|--5--5-5-5----|-5--------|-(5)----|

|------------|--------------|----------|--------|

3/4 4/4

+H. W +W

|--------------|----------|------------|

|-(3)----------|-3--------|-(3)--------|

|-(2)----------|-2--------|-(2)--------|

|-(0)----------|-0--------|-(0)--------|

|--------------|----------|------------|

|--------------|----------|------------|

|

| E E E E Q W +W

|--------------|----------|------------|

|--------------|----------|------------|

|--5--5-5-5----|-5--------|-(5)--------|

|--5--5-5-5----|-5--------|-(5)--------|

|--3--3-3-3----|-3--------|-(3)--------|

|--------------|----------|------------|

3/4 4/4 5/4

E E E E Q W +H. +H

|------------|----------|-----------------||

|-3-3-3-3----|-3--------|-(3)------(3)----||

|-2-2-2-2----|-2--------|-(2)------(2)----||

|-0-0-0-0----|-0--------|-(0)------(0)----||

|------------|----------|-----------------||

|------------|----------|-----------------||

|

| E E E E Q W +H. +H

|------------|----------|-----------------||

|------------|----------|-----------------||

|-7-7-7-7----|-7--------|-(7)------(7)----||

|-7-7-7-7----|-7--------|-(7)------(7)----||

|-5-5-5-5----|-5--------|-(5)------(5)----||

|------------|----------|-----------------||

end Rhy Fig 3|

Verses

$

4/4

Gtrs I, II

PM| PM| PM--| PM| PM| PM| PM--| PM|

E E E E E E E E E E E E E E E E E E E E E E E E E E E E E E E E

||------------------|-----------------|-----------------|-----------------|

||o-----------------|-----------------|-----------------|-----------------|

||------------------|-----------------|-----------------|-----------------|

||--7-7---7-----7-7-|---7-----7-7-7-7-|-7-7---7-----7-7-|---7-----7-7-7-7-|

||o-5-5-5-5-5-5-5-5-|-5-5-5-5-5-5-5-5-|-5-5-5-5-5-5-5-5-|-5-5-5-5-5-5-5-5-|

||------------------|-----------------|-----------------|-----------------|

PM| PM| PM--| PM| PM PM|

E E E E E E E E E E E E E E E E E E E E E E Q E E E E E E E E

|-----------------|-----------------|--------------------|-----------------|

|-----------------|-----------------|--------------------|-----------------|

|-----------------|-----------------|--------------------|-----------------|

|-7-7---7-----7-7-|---7-----7-7-7-7-|--------------------|-7-7-7-7-7-7-7-7-|

|-5-5-5-5-5-5-5-5-|-5-5-5-5-5-5-5-5-|-2h3-3-3-3p2--------|-5-5-5-5-5-5-5-5-|

|-----------------|-----------------|-------------3b3.5--|-----------------|

PM| PM| PM--| PM| PM| PM| PM--| PM|

E E E E E E E E E E E E E E E E E E E E E E E E E E E E E E E E

|-----------------|-----------------|-----------------|-----------------|

|-----------------|-----------------|-----------------|-----------------|

|-----------------|-----------------|-----------------|-----------------|

|-7-7---7-----7-7-|---7-----7-7-7-7-|-7-7---7-----7-7-|---7-----7-7-7-7-|

|-5-5-5-5-5-5-5-5-|-5-5-5-5-5-5-5-5-|-5-5-5-5-5-5-5-5-|-5-5-5-5-5-5-5-5-|

|-----------------|-----------------|-----------------|-----------------|

PM| PM| PM--| PM| PM

E E E E E E E E E E E E E E E E E E E E E E Q E E E E E E E E

|-----------------|-----------------|--------------------|-----------------||

|-----------------|-----------------|--------------------|-----------------||

|-----------------|-----------------|--------------------|-----------------||

|-7-7---7-----7-7-|---7-----7-7-7-7-|--------------------|-7-7-7-7-7-7---5-||

|-5-5-5-5-5-5-5-5-|-5-5-5-5-5-5-5-5-|-2h3-3-3-3p2--------|-5-5-5-5-5-5-0-3-||

|-----------------|-----------------|-------------3b3.5--|-----------------||

Chorus

1.

Gtr II Gtrs I, II GtrGtrs I, II

PM|

+Q E E E E E E +H. E E +H E E E E

|-------------------|--------------|------------------|

|-------------------|--------------|------------------|

|-------------------|--------------|------------------|

|-(5)--5-5-5-5-5--5-|-(5)------5-5-|-(5)----5--5--5-7-|

|-(3)--3-3-3-3-0--2-|-(2)------2-3-|-(3)----3--3--3-5-|

|-------------------|--------------|------------------|

Gtr II Gtrs I, II GtrGtrs I, II

PM------|

+H E E E E +Q E E E E E E +H E E E E

|----------------|-------------------|------------------|

|----------------|-------------------|------------------|

|----------------|-------------------|------------------|

|-(7)----7-7-7-5-|-(5)--5-5-5-5-5--5-|-(5)----5--5--5-5-|

|-(5)----5-5-5-3-|-(3)--3-3-3-3-3--2-|-(2)----2--2--2-3-|

|----------------|-------------------|------------------|

PM| PM| PM PM|

+H. E E E E E E E E E E E E E E E E E E

|--------------|-----------------|------------------||

|--------------|-----------------|-----------------o||

|--------------|-----------------|------------------||

|-(5)------5-7-|-7-7-7-7-----7-7-|---7-----7-7-7-7--||

|-(3)------3-5-|-5-5-5-5-5-5-5-5-|-5-5-5-5-5-5-5-5-o||

|--------------|-----------------|------------------||

Chorus

2.,3.,D.S.

Gtrs I, II

H.. E +H.. E +H.. E +E E E E E E E E

|--------------|--------------|--------------|-------------------|

|--------------|--------------|--------------|-------------------|

|--------------|--------------|--------------|-------------------|

|-(5)--------5-|-(5)--------5-|-(5)--------7-|-(7)-7-7-7-7-7-7-5-|

|-(3)--------2-|-(2)--------3-|-(3)--------5-|-(5)-5-5-5-5-5-5-3-|

|--------------|--------------|--------------|-------------------|

Interlude

To Coda

+H.. E +H.. E +H Q Q E E E E E E E E

|--------------|--------------|--------------||------------------|

|--------------|--------------|-----------0--||o-----------------|

|--------------|--------------|-----------0--||--2-2-2-4---2-----|

|-(5)--------5-|-(5)--------5-|-(5)----5--0--||--0-0-0-0-0-0-0-0-|

|-(3)--------2-|-(2)--------3-|-(3)----3-----||o-----------------|

|--------------|--------------|--------------||------------------|

1.,2.,3.

E E E E E E E E E E E E E E E E E E E E E E E E

|-----------------|-----------------|------------------||

|-----------------|-----------------|-----------------o||

|-4-4-4-5---4-----|-5-5-5-7---5-----|-7-7-7-7---5------||

|-0-0-0-0-0-0-0-0-|-0-0-0-0-0-0-0-0-|-0-0-0-0-0-0-0-0--||

|-----------------|-----------------|-----------------o||

|-----------------|-----------------|------------------||

Dave Murray - Guitar Solo

4.

Gtr IV

~~~~~~~

H Q E S S Q E E +Q. E

|---------------------||----------------------------|

|---------------15h18p||=15-------------------------|

|---------------------||------15-14-(14)-----15b17==|

|---------------------||----------------------------|

|---------------------||----------------------------|

|---------------------||----------------------------|

|

| Gtrs I, II

| PM--------------------

| E E E E Q E E +Q E E E E E E

|---------------------||----------------------------|

|---------------------||----------------------------|

|-7-7-7-7-7\----------||----------------------------|

|-0-0-0-0-0------3----||-(3)---3--3---3--3-3--3-----|

|-------------0--1----||-(1)---1--1---1--1-1--1-----|

|---------------------||----------------------------|

|-Rhy Fig 4

|-------3--------|

+Q +Q +Q +E S S S S S S

|-------------------------------------------------------|

|-------------------------------------------------------|

|-(15)r==(15)b17r==(15)b17r==(15)b17-15p14h15p14s12-14p=|

|-------------------------------------------------------|

|-------------------------------------------------------|

|-------------------------------------------------------|

|

|-|

| E E E E E E E E

|-------------------------------------------------------|

|-------------------------------------------------------|

|-------------------------------------------------------|

|---3--3---------3---------3---3------3-----3-----------|

|---1--1---------1---------1---1------1-----1-----3-----|

|-------------------------------------------------1-----|

\2

~~~

S S S S E S S S S S S E E +H +Q E S S

|----------------------------------------|----------------------------|

|----------------------------------------|---------------------15h17p=|

|-12h=14p12h14p12s10h12p10h12p10h12p10s9-|-(9)-------(9)---/15--------|

|----------------------------------------|----------------------------|

|----------------------------------------|----------------------------|

|----------------------------------------|----------------------------|

|

| PM---------------------|

| +E E E E E E E E E E E E E E E E

|----------------------------------------|----------------------------|

|----------------------------------------|----------------------------|

|----------------------------------------|----------------------------|

|----------------------------------------|----------------------3-----|

|-(3)-----3-----3--3-----3-----3-----3-3-|--3--3-3-3--3--3---3--1-----|

|-(1)-----1-----1--1-----1-----1-----1-1-|--1--0-1-0--1--0---0--------|

end Rhy Fig 4-|

w/Rhy Fig 3 x2.5

S S S S S S S S S S S S S S S S

|--------------------------------------------------|

|-15h=17p15h17p15h17p15h18p15h18p15h18p15h18p15h18p|

|--------------------------------------------------|

|--------------------------------------------------|

|--------------------------------------------------|

|--------------------------------------------------|

S S S S S S S S S S S S +Q

|-------------------------------------------------|

|-15h17p15h17p15h17p15h18p15h18p15-18b20==(18)----|

|-------------------------------------------------|

|-------------------------------------------------|

|-------------------------------------------------|

|-------------------------------------------------|

+H +H

|----------------------------|

|-(18)b21========(18)r-------|

|----------------------------|

|----------------------------|

|----------------------------|

|----------------------------|

|--------3---------| |---------3---------|

Q +Q +Q +Q +Q +Q

|-----------------------------------------------------------|

|-18b21r==(18)b21r==(18)b21r==(18)b21r==(18)b21r==(18)b21---|

|-----------------------------------------------------------|

|-----------------------------------------------------------|

|-----------------------------------------------------------|

|-----------------------------------------------------------|

S S S S S S S S S S S S S S S S

|--------------------------------------------------|

|-15h=18p15h18p15h18p15s13-15p13h15p13h15p13h15p10-|

|--------------------------------------------------|

|--------------------------------------------------|

|--------------------------------------------------|

|--------------------------------------------------|

S S S S E S S S S S S S S S S

|--------------------------------------------|

|-11h13p11h13p11-10h11p10h11p10s8h10p8h10-8s=|

|--------------------------------------------|

|--------------------------------------------|

|--------------------------------------------|

|--------------------------------------------|

~~~

|--3---| |--3--| |--3--| |---3---|

E E E E E E E E E E +E +H. E E E

|------------------------------------|----------------------------|

|--6h=8p==6S5h6p==5------------------|----------------------------|

|-------------------7p5s==4----------|-------------------17h==19p=|

|---------------------------5b7==(5)r|=(5)-----------/19----------|

|------------------------------------|----------------------------|

|------------------------------------|----------------------------|

|--3---|

E E E S S S S S S S S Q

|----------------------------------------|

|-----------17h18p17----17h18p17----18---|

|-17--17-19----------19----------19------|

|----------------------------------------|

|----------------------------------------|

|----------------------------------------|

~~~~~~~~

H +Q +E +E

|--------------------------------------|

|-20b22========(20)r==(20)b22r(20)b22==|

|--------------------------------------|

|--------------------------------------|

|--------------------------------------|

|--------------------------------------|

~~~~~~~~~~~

+Q +Q +E +E E E +H H

|-------------------------------20b22==|=(20)r------20\-------||

|-(20)---(20)r==(20)b22r(20)-18--------|----------------------||

|--------------------------------------|----------------------||

|--------------------------------------|----------------------||

|--------------------------------------|----------------------||

|--------------------------------------|----------------------||

|

| PM-------------------|

| E E E E E E E E E E q E E E E

|--------------------------------------|----------------------||

|--------------------------------------|----------------------||

|--------------------------------------|----------------------||

|--------------------------------------|-------------7--7-7-5-||

|---3--3---3--3---3-------3---3--3-----|---3---3-3---5--5-5-3-||

|---1--1---1--1---1-------1---1--1-----|---1---1-1------------||

Gtrs I, II

PM--| PM--|

E a E E E E E E E E E E E E E E E E a E E E E E E E E E E E E E E E

|-------------------|-----------------|-------------------|-----------------|

|-------------------|-----------------|-------------------|-----------------|

|-------7---5-------|-----------------|-------3---1-------|-----------------|

|---5s7---7---7-5---|-5-------5-5-5-3-|---2s3---3---3-1---|-1---------------|

|-----------------7-|---7-6-5-3-3-3-1-|-----------------3-|---3-2-1-5-5-5-3-|

|-------------------|-----------------|-------------------|---------3-3-3-1-|

Gtr I

PM----------------------------|

+Q E E E E E E E E E E E E E E

|---------------------|-------------------|

|---------------------|-------------------|

|---------------------|-------------------|

|---------------------|-------------------|

|-(3)---3-3-3-3-3-3---|-3---3-3-3-3-3-3-5-|

|-(1)---1-1-1-1-1-1---|-1---1-1-1-1-1-1-3-|

|

| Gtr II

| +H.. S S H.. E

|---------------------|-------------------|

|---------------------|-------------------|

|---------------------|-------------------|

|---------------------|-------------------|

|-(3)-------------3-3-|-3---------------5-|

|-(1)-------------1-1-|-1---------------3-|

PM------|

+Q E E E E E E +E E E E +E E E E

|------------------|----------------------||

|------------------|----------------------||

|------------------|----------------------||

|------------------|---------5-(5)-5-x-7--||

|-(5)--5-5-5-5-5-7-|-(7)-7-0-3-(3)-3-x-5--||

|-(3)--3-3-3-3-3-5-|-(5)-5----------------||

|

| +Q E E E E E E +H E Q E

|------------------|----------------------||

|------------------|----------------------||

|------------------|----------------------||

|------------------|------------5--5---7--||

|-(5)--5-5-5-5-0-7-|-(7)--------3--3---5--||

|-(3)--3-3-3-3-0-5-|-(5)------------------||

Adrian Smith - Guitar Solo

Gtr V

E E E E E E E E +E E E E E +E E E

|---------------------------------------|-------------------------------------|

|-13-----13-13--13-----13-13--13-13-----|-(13)--13-----13-13--13---------0-10-|

|-15b17==15-15r-15b17==15-15r----15b17==|=(15)r-15b17==15-15r-15b17r(15)-0-10-|

|---------------------------------------|-------------------------------------|

|---------------------------------------|-------------------------------------|

|---------------------------------------|-------------------------------------|

|

| Gtrs I, II

| +Q E E E E E E +H.. E

|---------------------------------------|-------------------------------------|

|---------------------------------------|-------------------------------------|

|---------------------------------------|-------------------------------------|

|-(7)--------7---7------7--7---7--------|-------------------------------------|

|-(5)--------5---5------5--5---5--3-----|--(3)------------------------------5-|

|---------------------------------1-----|--(1)------------------------------3-|

|-Rhy Fig 5

~~~~~

+Q E E E E E E +H. E E

|----------------------------------|--------------------------|

|-(10)b10.5------------------------|----------------10-13b15==|

|-(10)b10.5-----------------12b14==|=(12)r--------------------|

|------------12p10-----------------|--------------------------|

|------------------12-11-10--------|--------------------------|

|----------------------------------|--------------------------|

|

| +H.. E +Q. E +Q. E

|----------------------------------|--------------------------|

|----------------------------------|--------------------------|

|----------------------------------|--------------------------|

|----------------------------3-----|--(3)----5-(5)------7-----|

|--(5)-----------------------1-----|--(1)----3-(3)------5-----|

|--(3)-----------------------------|--------------------------|

end Rhy Fig 5-|

w/Rhy Fig 5 x3

+Q Q S E. Q S S E S S E S S E S S E

|--------10------13p10----10------|-12p=10----10-------------------------|

|-(13)r--13b15------------13b15---|--------13----13p10-13p10----13p10----|

|---------------------------------|--------------------------12-------13-|

|---------------------------------|--------------------------------------|

|---------------------------------|--------------------------------------|

|---------------------------------|--------------------------------------|

~~~~

S S E E E +Q +S S E +H +Q Q

|--------------------------------------|---------------------------|

|-----------10-12b13==(12)r=(12)p10----|---------------------------|

|-12p=10----10----------------------12-|-(12)-----(12)\--17b19-----|

|--------12----------------------------|---------------------------|

|--------------------------------------|---------------------------|

|--------------------------------------|---------------------------|

E E E E E E E E E E E E S S E S S E

|--------------------------------|-------------------------------------------|

|-15--18-------15-18-------15-18-|-------15-18-------15h18-------15h18-------|

|--------17b19-------17b19-------|-17b19-------17b19-------17b19-------17b19-|

|--------------------------------|-------------------------------------------|

|--------------------------------|-------------------------------------------|

|--------------------------------|-------------------------------------------|

~~~~~~~~~~~~

E E E E E E E E Q E E +Q. E

|---------------------------------------|-------------------------------|

|-18---------18-------18-------18-------|-18---15-18b20==(18)r---18b20==|

|------17b19----17b19----17b19----17b19-|-------------------------------|

|---------------------------------------|-------------------------------|

|---------------------------------------|-------------------------------|

|---------------------------------------|-------------------------------|

T T ~~~~

|---3----| |--3---| |--3---|

+Q E E +E E E +Q +E E E +E E E +E +Q.

|-------------------------------------|----------------------------------------|

|-(18)h=20p18r(18)-15---18b20==(18)---|-(18)h20p18r(18)p15h18b21==(18)r(18)----|

|-------------------------------------|----------------------------------------|

|-------------------------------------|----------------------------------------|

|-------------------------------------|----------------------------------------|

|-------------------------------------|----------------------------------------|

~~~~~~~

E Q. +Q. E +Q E E +H

|------20b22====(20)r---20b22r|=(20)-----------------|

|--0--------------------------|-------18-------------|

|-----------------------------|----------19-(19)-----|

|-----------------------------|----------------------|

|-----------------------------|----------------------|

|-----------------------------|----------------------|

w/Rhy Fig 5

Gtr V

~~~

Q +Q H W

|-----------------------|--------------------------|

|-----------------------|--------------------------|

|-19---(19)\------------|--------------------------|

|-----------------------|--------------------------|

|-----------------------|--------------------------|

|-----------------------|--------------------------|

|

| Gtr II

| +Q E E E E E E +Q E E E E E E

|-----------------------|--------------------------|

|-----------------------|--------------------------|

|-----------------------|--------------------------|

|-(7)----7---7-7-7-7-10-|-(10)---10-10-10-10-10-12-|

|-(5)----5---5-5-5-5--8-|--(8)----8--8--8--8--8-10-|

|-----------------------|--------------------------|

+E E E E E E E E +Q. E +Q. E

|--------------------------|-----------------|

|--------------------------|-----------------|

|--------------------------|-----------------|

|-(12)--12-12-12-12-12-x-3-|-(3)---5-(5)---7-|

|-(10)--10-10-10-10-10-x-1-|-(1)---3-(3)---5-|

|--------------------------|-----------------|

w/Rhy Fig 5 (1st two bars)

Gtr II

+Q E E E E E E +Q E E E E E E

|-------------------|--------------------------|

|-------------------|--------------------------|

|-------------------|--------------------------|

|-(7)--7-7-7-7-7-10-|-(10)---10-10-10-10-10-12-|

|-(5)--5-5-5-5-5--8-|--(8)----8--8--8--8--8-10-|

|-------------------|--------------------------|

D.S. al Coda

PM|

+E E E E E E E E Q E E +Q E E

|--------------------------|-------------------||

|--------------------------|-------------------||

|--------------------------|-------------------||

|-(12)--12-12-12-12-12-x-3-|-3--3-5-(5)--5-7---||

|-(10)--10-10-10-10-10-x-1-|-1--1-3-(3)--3-5---||

|--------------------------|-------------------||

|

| PM|

| +H.. E Q E E +Q E E

|--------------------------|-------------------||

|--------------------------|-------------------||

|--------------------------|-------------------||

|------------------------3-|-3--3-5-(5)--5-7---||

|--(5)-------------------1-|-1--1-3-(3)--3-5---||

|--(3)---------------------|-------------------||

&

6/4 4/4 6/4

Gtrs I, II

PM------------------------------------------------------|

Q E E E E E E E E E E E E E E E E E E E E E E E E E E E E E E

|--------------------------|-----------------|-------------------------||

|--------------------------|-----------------|-------------------------||

|--------------------------|-----------------|-------------------------||

|-(5)--5-5-5-------4---5---|-7-----7-----7---|---7-----7-------4---5---||

|-(3)--3-3-3-5-5-5---5---5-|-5-5-5-5-5-5-5-5-|-5-5-5-5-5-5-5-5---5---5-||

|--------------------------|-----------------|-------------------------||

Verse 5

Rhy Fig 1 + 2 x2

Outro

w/Rhy Fig 3 (1st 6 bars)

2.

6/4 4/4

Gtr III

H E E E E q E E +W

|-----------2-2-2-2----2-|-(2)--------|

|-----------3-3-3-3----3-|-(3)--------|

|-----------2-2-2-2----2-|-(2)--------|

|-----------0-0-0-0----0-|-(0)--------|

|------------------------|------------|

|------------------------|------------|

3/4 4/4

+W E E E E Q W +W

|-(2)--------|-2-2-2-2----|-2--------|-(2)----|

|-(3)--------|-3-3-3-3----|-3--------|-(3)----|

|-(2)--------|-2-2-2-2----|-2--------|-(2)----|

|-(0)--------|-0-0-0-0----|-0--------|-(0)----|

|------------|------------|----------|--------|

|------------|------------|----------|--------|

3/4 4/4 3/4 4/4

+H. W +W E E E E Q Q E E +Q Q

|-(2)----------|-2--------|-(2)--------|------------|-------------------*|

|-(3)----------|-3--------|-(3)--------|------------|-------------------*|

|-(2)----------|-2--------|-(2)--------|-7-7-7-7----|-7--5-7-(7)\-------*|

|-(0)----------|-0--------|-(0)--------|-7-7-7-7----|-7--5-7-(7)\-------*|

|--------------|----------|------------|-5-5-5-5----|-5--3-5-(5)\-------*|

|--------------|----------|------------|------------|-------------------*|

|

| E E E E Q W +W E E E E Q Q E E +Q Q

|--------------|----------|------------|------------|-------------------*|

|--------------|----------|------------|------------|-------------------*|

|--5--5-5-5----|-5--------|-(5)--------|-7-7-7-7----|-7--5-7-(7)\-------*|

|--5--5-5-5----|-5--------|-(5)--------|-7-7-7-7----|-7--5-7-(7)\-------*|

|--3--3-3-3----|-3--------|-(3)--------|-5-5-5-5----|-5--3-5-(5)\-------*|

|--------------|----------|------------|------------|-------------------*|

Get this song at:  amazon.com sheetmusicplus.com

Share your thoughts

0 Comments found