Iron

Iron - Maiden - Number Of Beast bass tab

Tab explanations

-----------------------------------------------------

> Accent | / Slide up

. Staccatto | \ Slide down

h Hammer-on/ pull off | : Repeat

� Harmonic | ~ slight bend

-----------------------------------------------------

The Number of the Beast ( Harris )

( From the album " Number of the Beast " )

---------------------------|-----------11----12----14------14-------14-------

---------------------------|.-12-12-12----12----12----12-12---12-12----12-12-

---------------------------|.------------------------------------------------

---------------------------|-------------------------------------------------

Intro - Recite Bible verse

-14-------14-----------11----12-----14-------14-------14-------14-------14---

----12-12----12--12-12----12----12-----12-12----12-12----12-12----12-12------

-----------------------------------------------------------------------------

-----------------------------------------------------------------------------

Vocals enter

----------9----10----12-------12-------12-------12----------9----10----14----

-10-10-10---10----10----10-10----10-10----10-10----10-10-10---10----10----12-

-----------------------------------------------------------------------------

-----------------------------------------------------------------------------

----14--------14--------14---|---------->----------->----------------------->

-12----12--12----12--12-----.|-0-0-0-0--0--0-0-0-0--0------------>--0-0-0-0-0

----------------------------.|--------------------------3-3-3-3--3-----------

-----------------------------|-----------------------------------------------

End Intro

-----------------------------------------------------------------------------

-----------------------------------------------------------------------------

-3h5-5-5-5--5-5-5-5--5-5-5-5--3h5-5-5-5--5-5-5-5--5-5-5-5--3h5-5-5-5--5-5-5-5

-----------------------------------------------------------------------------

Faster

-----------------------------------------------------------------------------

-----------------------------------------------------------------------------

-5-5-5-5--3-3-3-3-3-2-----5-5-5-5--5-5-5---3h5-5-5-5--5-5-5-5--5-5-5-5--3h5-5

-----------------------3-----------------------------------------------------

-----------------------------------------------------------------------------

-----------------------------------------------------------------------------

-5-5-5--5-5-5-5--5-5-5-5--3h5-5-5-5--5-5-5-5--5-5-5-5--3-3-3-3-3-2----5-5-5-5

--------------------------------------------------------------------3--------

-------------------------------------------------------------------7---------

---------------------------------------------------------------5-7---7--5----

-5-5-5---3-3-3-3--3-3-3--2-2-2-2--2-2-2-2--3-3-3-3--3-3-3--55----------------

-----------------------------------------------------------------------------

"Six..Six six..."

-----------------------------------------------------------------------------

-----------------------------------------------------------------------------

-3-3-3-3--3-3-3--2-2-2-2--2-2-2-2--3-3-3-3--3-3-3-3h5-5-5-5--5-5-5-5--5-5-5-5

-----------------------------------------------------------------------------

-----------------------------------------------------------------------------

-----------------------------------------------------------------------------

-3h5-5-5-5--5-5-5-5--5-5-5-5--3h5-5-5-5--5-5-5-5--5-5-5-5--3-3-3-3-3-2----5-5

------------------------------------------------------------------------3----

"Torches blaze..."

-----------------------------------------------------------------------------

-----------------------------------------------------------------------------

-5-5--5-5-5--3h5-5-5-5--5-5-5-5--5-5-5-5--3h5-5-5-5--5-5-5-5--5-5-5-5--3h5-5-

-----------------------------------------------------------------------------

-----------------------------------------------------------------------------

-----------------------------------------------------------------------------

-5-5--5-5-5-5--5-5-5-5--3-3-3-3-3-2-----5-5-5-5--5-5-5--3-3-3-3--3-3-3--2-2-2

-------------------------------------3---------------------------------------

------------------------------------7----------------------------------------

--------------------------------5-7---7-5------------------------------------

-2--2-2-2-2--3-3-3-3--3-3-3--55-----------3-3-3-3--3-3-3--2-2-2-2--2-2-2-2--3

-----------------------------------------------------------------------------

-----------------------------------------------------------------------------

-------------------7-------7-------9-------9--------10-----------10---10-----

-3-3-3--3-3-3--5-5---5-5-5---5-7-7---7-7-7---7---8-8----10-10-10----8----8-8-

-----------------------------------------------------------------------------

Intermission

-----------------------------------------------------------------------------

10----10---------7-------7-------9-------9-------10----------10----10---10---

---8-8---8--5-5----5-5-5---5-7-7---7-7-7---9-8-8----10-10-10----10---8-8--8-8

-----------------------------------------------------------------------------

-----------------------------------------------------------------------------

10--------7-------7-------9-------9-------10----------10----10-----10----10--

---8--5-5---5-5-5---5-7-7---7-7-7---7-8-8----10-10-10----10----8-8----8-8---8

-----------------------------------------------------------------------------

-----------------------------------------------------------------------|

-----7-------7-------9-------9-------10----------10----10------10------|

-5-5---5-5-5---5-7-7---7-7-7---7-8-8----10-10-10----10-----8-8----8-8--|

-----------------------------------------------------------------------|

-----------------------------------------------------------------------------

-----------------------------------------------------------------------------

--1--1-1-1--1-1-1-1--1-1-1-1--1-1-1---------------------------------------0-1

-------------------------------------0-1--1-1-1--1-1-1-1--1-1-1-1--1-1-1-----

Guitar Solo

-----------------------------------------------------------------------------

-----------------------------------------------------------------------------

-1-1-1--1-1-1-1--1-1-1-1--1-1-1---------------------------------------0-1--1-

---------------------------------0-1--1-1-1--1-1-1-1--1-1-1-1--1-1-1---------

-----------------------------------------------------------------------------

-----------------------------------------------------------------------------

-1-1--1-1-1-1--1-1-1-1--1-1-1---------------------------------------0-1--1-1-

-------------------------------0-1--1-1-1--1-1-1-1--1-1-1-1--1-1-1-----------

---------------------------------------------------------------------------.-

--------------------------------------------------------------------7-7-7--5-

-1--1-1-1-1--1-1-1-1--1-1-1--------------------------------------------------

-----------------------------0-1--1-1-1--1-1-1-1--1-1-1-1--1-1-1-------------

-----7-----5-------------------------------.----5---3------------------------

--7-----7-----7---5--3--7--3--2-3---5-5-5--3--5---5---5--3--1--5--1-------5-5

---------------------------------------------------------------------3-5-----

-----------------------------------------------------------------------------

-----------------------------------------------------------------------------

-5--3---3-3-3--3-3-3-3--3-3-3-3--3-3-3--5--5-5-5-5--5-5-5--7--7-7-7--10-10---

-----------------------------------------------------------------------------

-----------------------------------------------------------------------------

--------------9---------------------4--------------------5-------------------

--------7--9-----9--7---------2--4-----4--2--------3--5-----5--3-------7-----

--7--9------------------0--2-----------------3--5-----------------5--7-------

-----------------------------------------------------------------------------

Guitar Solo 2

-------9------------7--9--7-----------------4-----------------3--5--3--------

----9------------7-----------9--------2--4-----4--2--------3-----------5-----

-7---------7--9-----------------0--2-----------------3--5--------------------

-----------------------------------------------------------------------------

-------7---------9-------------7--9--7-----------------4---------------3--5--

-5--7------7--9-------------7-----------9--------2--4-----4--2-------3-------

----------------------7--9-----------------0--2-----------------3--5---------

-----------------------------------------------------------------------------

--3-------------7--------9---------------7---------------------4-------------

-----5----5--7------7--9-----------7--9-----9--7---------2--4-----4--2-------

------------------------------7--9-----------------0--2-----------------3--5-

-----------------------------------------------------------------------------

--------3---------------7---------9---/19---19-19-19-19--------10---10-10-10-

--3--5-----5--3------7----------9-----------------------19-17----------------

------------------5----------7-----------------------------------------------

-----------------------------------------------------------------------------

-10---10-10--12--12-12-12-12---12-12--15--15---17--17---/19---19-19-19-19----

-----------------------------------------------------------------------------

-----------------------------------------------------------------------------

-----------------------------------------------------------------------------

-10---10-10-10-10---10--10---12---12-12-12-12---12---12---15--15----17---17-|

----------------------------------------------------------------------------|

----------------------------------------------------------------------------|

----------------------------------------------------------------------------|

End Solo

-----------------------------------------------------------------------------

-----------------------------------------------------------------------------

-3h5-5-5-5--5-5-5-5--5-5-5-5--3h5-5-5-5--5-5-5-5--5-5-5-5--3h5-5-5-5--5-5-5-5

-----------------------------------------------------------------------------

-----------------------------------------------------------------------------

-----------------------------------------------------------------------------

-5-5-5-5--3-3-3-3-3-2-----5-5-5-5--5-5-5---3h5-5-5-5--5-5-5-5--5-5-5-5--3h5-5

-----------------------3-----------------------------------------------------

-----------------------------------------------------------------------------

-----------------------------------------------------------------------------

-5-5-5--5-5-5-5--5-5-5-5--3h5-5-5-5--5-5-5-5--5-5-5-5--3-3-3-3-3-2----5-5-5-5

--------------------------------------------------------------------3--------

-------------------------------------------------------------------7---------

---------------------------------------------------------------5-7---7--5----

-5-5-5---3-3-3-3--3-3-3--2-2-2-2--2-2-2-2--3-3-3-3--3-3-3--55----------------

-----------------------------------------------------------------------------

----------------------------------------------------|

----------------------------------------------------|

-3-3-3-3--3-3-3--2-2-2-2--2-2-2-2--3-3-3-3--3-3-3-3-|

----------------------------------------------------|

----------11----12----14------14-------14-------14------14-----------11------

-12-12-12----12----12----12-12---12-12----12-12---12-12----12--12-12----12---

-----------------------------------------------------------------------------

-----------------------------------------------------------------------------

Outro

12----14--------14-------14-------14-------14------------9----10----12-------

---12-----12-12----12-12----12-12----12-12------10-10-10---10----10----10-10-

-----------------------------------------------------------------------------

-----------------------------------------------------------------------------

-12-------12-------12----------9----10----14-------14--------14--------14---|

----10-10----10-10----10-10-10---10----10----12-12----12--12----12--12-----.|

---------------------------------------------------------------------------.|

----------------------------------------------------------------------------|

---------->----------->---------------------.----------||

-0-0-0-0--0--0-0-0-0--0------------>--0-0-0-0-->->->---||

--------------------------3-3-3-3--3-----------5-3-5\--||

-------------------------------------------------------||

Get this song at:  amazon.com sheetmusicplus.com

Share your thoughts

0 Comments found